Static X - Cold Chords & Tabs

 

Cold Chords & Tabs

Static X Chords & Tabs

Version: 5 Type: Bass Tab 0 ratings
1 star 2 stars 3 stars 4 stars 5 stars
comments

Cold Bass Tab

   
-----------------------------------------------------------------------------
			     COLD - Static-X
-----------------------------------------------------------------------------

Tabbed By : KoRnKid89 
e-mail: XblytheX89@aol.com

Tuning: CGCF

  Intro:
F|------------------|------------------|------------------|----------------|
C|------------------|------------------|------------------|----------------|
G|------------------|------------------|------------------|----------------|
C|--0-0--00-0-8p77--|--0-0--00-0-8p77--|--0-0--00-0-8p77--|--0-0--00-0-8\--|

  Verse:
F|------------------|
C|------------------|
G|------------------|
C|--0-0--00-0-0-----|
  (8x)

  Chorus:
F|-------------------------------------|
C|-------------------------------------|
G|-------------------------------------|
C|--0-0--00-0-0---00-6p5--55-5-5-7777--|
  (4x)
[ Tab from: http://www.guitartabs.cc/tabs/s/static_x/cold_btab_ver_5.html ]
(Verse)

(Chorus  

Bridge pt. 1:
F|------------------|------------------|------------------|----------------|
C|------------------|------------------|------------------|----------------|
G|------------------|------------------|------------------|----------------|
C|--0-0--00-0-8p77--|--0-0--00-0-8p77--|--0-0--00-0-8p77--|--0-0--00-0-8\--|

(Bridge pt. 2 -- No bass)

  Outro:
F|------------------|------------------|------------------|----------------|
C|------------------|------------------|------------------|----------------|
G|------------------|------------------|------------------|----------------|
C|--0-0--00-0-8p77--|--0-0--00-0-8p77--|--0-0--00-0-8p77--|--0-0--00-0-8~--|



| /  slide up
| \  slide down
| h  hammer-on
| p  pull-off
| ~  vibrato
| +  harmonic
| x  Mute note
=============================================================================
Comments