Static X - Cold Chords & Tabs

 

Cold Chords & Tabs

Static X Chords & Tabs

Version: 1 Type: Bass Tab 0 ratings
1 star 2 stars 3 stars 4 stars 5 stars
comments

Cold Bass Tab

By: craig severn (sev_79@hotmail.com)

Note:
  -The beat may be too fast at 80 bpm

(4/4)(80 bpm)
5-string in standard tuning

[ Tab from: http://www.guitartabs.cc/tabs/s/static_x/cold_btab.html ]
|----------------|----------------|----------------|----------------|
|----------------|----------------|----------------|----------------|
|----------------|----------------|----------------|----------------|
|----------------|----------------|----------------|----------------|
|1-1--1-11-1-67--|1-1--1-11-1-67--|1-1--1-11-1-67--|1-1--1-11-1-7---|


|----------------|
|----------------|
|----------------|
|----------------|
|1-1--1-11-1-----|


|----------------|----------------|
|----------------|----------------|
|----------------|----------------|
|----------------|2-1--1-11-1-1---|
|1-1--1-1121--21-|----------------|
Comments