Static X - Burning Inside Chords & Tabs

 

Burning Inside Chords & Tabs

Static X Chords & Tabs

Version: 1 Type: Tab 0 ratings
1 star 2 stars 3 stars 4 stars 5 stars
comments

Burning Inside Tab

   
 BITCHIN' TABS

          URL: www.angelfire.com/goth/btab/
	EMAIL: btabmaster@hotmail.com

        THIS IS AN EXCLUSIVE TAB TO "BITCHIN' TABS"

 ----------------------------------------------------------------------------------------------

	     SONG: Burning Inside
	     BAND: Static-X ft. Burton C Bell of Fear Factory
	    ALBUM: The Crow; Salvation Soundtrack
   TRANSCRIBED BY: Chris Frazier (btabmaster@hotmail.com)
	     DATE: 07-11-2K1

 ----------------------------------------------------------------------------------------------

	TUNING: Down 1 step and drop D (C G C F A D)

     Riff 1:
    D|--------------------------------------|
    A|--------------------------------------|
    F|--------------------------------------|
    C|-3-2---3-2---3-2---3-2-2-2-0--3-3-3-2-|
    G|-3-2---3-2---3-2---3-2-2-2-0--3-3-3-2-|
    C|-3-2---3-2---3-2---3-2-2-2-0--3-3-3-2-|
     PM  -     -     -           -        -
[ Tab from: http://www.guitartabs.cc/tabs/s/static_x/burning_inside_tab.html ]
     Riff 2:
    D|--------------------------------------|
    A|--------------------------------------|
    F|--------------------------------------|
    C|-3-2---3-2---3-2---3-2-2-2-0--3-3-3-2-|
    G|-3-2---3-2---3-2---3-2-2-2-0--3-3-3-2-|
    C|-3-2---3-2---3-2---3-2-2-2-0--3-3-3-2-|
     PM                          -        -

     Riff 3:
    D|----------------------------------------------------------|
    A|----------------------------------------------------------|
    F|----------------------------------------------------------| (x)=don't play last time
    C|-3-2---------3-2---------3-2---------3-2-2-2-0--3-3-3-(2)-|
    G|-3-2---------3-2---------3-2---------3-2-2-2-0--3-3-3-(2)-|
    C|-3-2-2222222-3-2-2222222-3-2-2222222-3-2-2-2-0--3-3-3-(2)-|
     PM  - -------   - -------   - -------         -      -  -

     Riff 4:
    D|-------------------|
    A|-------------------|
    F|---------10-10-10--|
    C|-2-2-2-0-10-10-10--|
    G|-2-2-2-0-8--8--8---|
    C|-2-2-2-0-----------|
     PM      -

     Riff 5:
    D|------|
    A|------|
    F|------|
    C|-2----|
    G|-2----|
    C|-2----|
Comments