Static X - Black And White Chords & Tabs

 

Black And White Chords & Tabs

Static X Chords & Tabs

Version: 9 Type: Tab 0 ratings
1 star 2 stars 3 stars 4 stars 5 stars
comments

Black And White Tab

   
Song:  Black and White
Artist:  Static-X
Album:  Machine (2001)
Tab Type:  Guitar
Tabbed by:  Christian / silent_warrior_@hotmail.com

Another easy song...

I need some feedback on my tabs.  Please e-mail me with your comments.  
I want to know how I'm doing!

Tuning:  C F A# D# G C

Intro
C |---------------------------------------------------------|
G |--5-5-5-5-5---5-5-5-5-5-------5-5-5-5-5---5-5-5-5-5------|
D#|---------------------------------------------------------| x4 
A#|--3-3-3-3-3---3-3-3-3-3-------3-3-3-3-3---3-3-3-3-3------|
F |---------------------------------------------------------|
C |--------------------------0-------------------------0----|

Verse - "Lost in my own world, lost in my own world, lost in my..." 
C |-------------| 
G |--5-5-5-5-5--| 
D#|-------------| x3 
A#|--3-3-3-3-3--| 
F |-------------| 
C |-------------|


Chrous - "Losing your mind, losing your mind...."
C |-----------------|
G |-----------------|
D#|-----------------|
A#|--3---4---5---4--| x2
F |--3---4---5---4--|
C |--1---2---3---2--|


C |---------------------------------------------------------|
G |--5-5-5-5-5---5-5-5-5-5-------5-5-5-5-5---5-5-5-5-5------|
D#|---------------------------------------------------------| x2 
A#|--3-3-3-3-3---3-3-3-3-3-------3-3-3-3-3---3-3-3-3-3------|
F |---------------------------------------------------------|
C |--------------------------0-------------------------0----|


Verse
C |-------------|
G |--5-5-5-5-5--|
D#|-------------| x3
A#|--3-3-3-3-3--|
F |-------------|
C |-------------|


Chrous
C |-----------------|
G |-----------------|
D#|-----------------|
A#|--3---4---5---4--| x2
F |--3---4---5---4--|
C |--1---2---3---2--|


C |---------------------------------------------------------|
G |--5-5-5-5-5---5-5-5-5-5-------5-5-5-5-5---5-5-5-5-5------|
D#|---------------------------------------------------------| x4 
A#|--3-3-3-3-3---3-3-3-3-3-------3-3-3-3-3---3-3-3-3-3------|
F |---------------------------------------------------------|
C |--------------------------0-------------------------0----|


Chrous
C |-----------------|
G |-----------------|
D#|-----------------|
A#|--3---4---5---4--| x4
F |--3---4---5---4--|
C |--1---2---3---2--|


Bridge
C |-----------|
G |--5---5-5--|
D#|-----------| x4
A#|--3---3-3--|
F |-----------|
C |-----------|


Chrous
C |-----------------|
G |-----------------|
D#|-----------------|
A#|--3---4---5---4--| x4
F |--3---4---5---4--|
C |--1---2---3---2--|


End - "Lost in my own world!" (Play softer for the first 4 times) 
C |---------------------------------------------------------|
G |--5-5-5-5-5---5-5-5-5-5-------5-5-5-5-5---5-5-5-5-5------|
D#|---------------------------------------------------------| x8 
A#|--3-3-3-3-3---3-3-3-3-3-------3-3-3-3-3---3-3-3-3-3------|
F |---------------------------------------------------------|
C |--------------------------0-------------------------0----|
===========

Static X - Black and white
Tabbed by Mudmaniac
Tuning C G C F A D
(All Distorted) 
[ Tab from: http://www.guitartabs.cc/tabs/s/static_x/black_and_white_tab_ver_9.html ]
INTRO
|------------------------|------------------------|------------------------
|------------------------|------------------------|------------------------
|-333--33333---333--333--|-333--33333---333--333--|-333--33333---333--333--
|-222--22222--0222--2220-|-222--22222--0222--2220-|-222--22222--0222--2220-
|-111--11111--0111--1110-|-111--11111--0111--1110-|-111--11111--0111--1110-
|-------------0--------0-|-------------0--------0-|-------------0--------0-
|--------------------------|
|--------------------------|
|-333--33333---333--333--3-|
|-222--22222--0222--2220-2-|
|-111--11111--0111--1110-1-|
|-------------0--------0---|

VERSE
|---------------------------------------------------------|
|---------------------------------------------------------|
|-------------------------------------------------------3-|
|-------------------------------------------------------2-| x2
|-------------------------------------------------------1-| 
|---------------------------------------------------------|
Lost in my own world, lost in my own world, lost in my.....

|---------------------------------------------------------|
|---------------------------------------------------------|
|-------------------------------------------------------3-|
|-------------------------------------------------------2-| x2
|-------------------------------------------------------1-| 
|---------------------------------------------------------|
Getting to the right, getting to the wrong, getting mine...

CHORUS
|-----------------------------------------------------------------|
|-----------------------------------------------------------------|
|-----------------------------------------------------------------|
|-1----------------3-----------------4---3------------------------|
|-1----------------3-----------------4---3------------------------|
|-1----------------3-----------------4---3------------------------|
    Losing your mind, losing your mind, its blurring, its fading...

|-----------------------------------------------|
|-----------------------------------------------|
|-----------------------------------------------|
|-1-----3--------4-----3------------------------|
|-1-----3--------4-----3------------------------|
|-1-----3--------4-----3------------------------|
   Your souls on fire, its black and white!

BACK TO INTRO, PLAY ONCE

VERSE 2 (Same as verse one)
|---------------------------------------------------------|
|---------------------------------------------------------|
|-------------------------------------------------------3-|
|-------------------------------------------------------2-| x2
|-------------------------------------------------------1-| 
|---------------------------------------------------------|
Burning inside, burning inside, burning into white.........

|---------------------------------------------------------|
|---------------------------------------------------------|
|-------------------------------------------------------3-|
|-------------------------------------------------------2-| x2
|-------------------------------------------------------1-| 
|---------------------------------------------------------|
Yourself collides, yourself collides, yourself into mine...

You can work out the rest of the song from the stuff above.
This is one of the best songs off their new album "Machine".
This is my first tab, so its probabley wrong, but it sounds
ok to me...cheers, Mud
Comments