Static X - Black And White Chords & Tabs

 

Black And White Chords & Tabs

Static X Chords & Tabs

Version: 6 Type: Tab 0 ratings
1 star 2 stars 3 stars 4 stars 5 stars
comments

Black And White Tab

Band: Static-x
Song: Black & white
Album: Machine
Tabbed by: Bazza

INTRO Both Guitars
-----------------------------------------                 LYRICS
-----------------------------------------
-----------------------------------------
-----------------------------------------
--8--2-2-2-2--2--8--2--2-2-2-2-----------
--6--0-0-0-0--0--6--0--0-0-0-0-----------
                   do this 5x

VERSE Guitar 1
--5/20----20\5-----------------------                Lost in my own world
-------------------------------------                Lost in my own world
-------------------------------------                Lost in my
-------------------------------------                Lost in my own world
-------------------------8-----------                Lost in my own world
-------------------------6-----------                Lost in my
              do this 4x

VERSE 2 Guitar 2                                     Getting to the right
-------------------------------------                Getting to the wrong
-------------------------------------                Getting mine
-------------------------------------                Getting to the right
-------------------------------------                Getting to the wrong
--------------------------8----------                Getting high
--------------------------6----------
             do this 4x

CHORUS 1 Both Guitars
--------------------------------------------           Losing your mind
--------------------------------------------           Losing your mind
--------------------------------------------           Its bluring
--------------------------------------------           Its fadding
--3-------5--------6--------5---------------           Your souls on fire
--1-------3--------4--------3---------------           Its black and white
                    do this 2x

VERSE 2 Both Guitars
----------------------------------------------
----------------------------------------------
----------------------------------------------
----------------------------------------------
--8--2-2-2-2--2--8--2-2-2-2--2----------------
--6--0-0-0-0--0--6--0-0-0-0--0----------------
                 do this 2x

VERSE 3 Guitar1
--5/20-----20/5---------------------               Burning inside
------------------------------------               Burning inside
------------------------------------               Burning into white
------------------------------------               Burning inside
-----------------------8------------               Burning inside
-----------------------6------------               Burning into night
              do this 4x

VERSE 3 Guitar 2
-------------------------------------               Yourself colides
-------------------------------------               Yourself colides
-------------------------------------               Yourself into mine
-------------------------------------               Yourself colides
-----------------------8-------------               Yourself colides
-----------------------6-------------               Yourself splinters like
             do this 4x

CHOURUS 2 Both Guitars
---------------------------------------------        Losing your mind
---------------------------------------------        Losing your mind
---------------------------------------------        Its bluring
---------------------------------------------        Its fading
--3---------5---------6---------5------------        Your souls on fire
--1---------3---------4---------3------------        Its black and white
                   do this 2x
[ Tab from: http://www.guitartabs.cc/tabs/s/static_x/black_and_white_tab_ver_6.html ]
VERSE 4 Both Guitars
---------------------------------------------
---------------------------------------------
---------------------------------------------
---------------------------------------------
--8--2-2-2-2--2--8--2-2-2-2--2---------------
--6--0-0-0-0--0--6--0-0-0-0--0---------------
                    do this 4x

CHOURUS 3 Guitar 1
---------------------------------------------         Losing your mind
---------------------------------------------         Losing your mind
---------------------------------------------         Its bluring
---------------------------------------------         Its fading
--8--2-2-2-2--2--8--2-2-2-2--2---------------         Your souls on fire
--6--0-0-0-0--0--6--0-0-0-0--0---------------         Its black & white
              do this 2x then
-----------------------------------------------      Bluring the light
-----------------------------------------------      Bluring the light
--888888/10101010/111111/10101010--------------      Its ours for the taking
--xxxxxx/xxxxxxx/xxxxxxx/xxxxxxxx--------------      Flickering coulors
--666666/8888888/9999999/88888888--------------      Its black and white
-----------------------------------------------

CHOURUS 3 Guitar2
----------------------------------------------
----------------------------------------------
----------------------------------------------
----------------------------------------------
--3---------5----------6-----------5----------
--1---------3----------4-----------3----------
                   do this 3x

VERSE 5 Both Guitars
------------------------------------------              Lost in my own world
------------------------------------------
------------------------------------------
------------------------------------------
--8-----------------8---------------------
--6-----------------6---------------------              Lost in my own world
             do this  2x

CHOURUS 4 Guitar 1
---------------------------------------------         Losing your mind
---------------------------------------------         Losing your mind
---------------------------------------------         Its bluring
---------------------------------------------         Its fading
--3---------5---------6-----------5--------           Your souls on fire
--1---------3---------4-----------3--------           Its black and white
                      do this 2x
----------------------------------------------       Bluring the light
----------------------------------------------       Bluring the light
--888888/10101010/1111111/101010--------------       Its ours for the taking
--xxxxxx/xxxxxxx/xxxxxxx/xxxxxxx--------------       Flickering coulers
--666666/8888888/9999999/8888888--------------       Its black and white
----------------------------------------------

CHOURUS 4 Guitar 2
-----------------------------------------------
-----------------------------------------------
-----------------------------------------------
-----------------------------------------------
--3---------5----------6-----------5---------
--1---------3----------4-----------3---------
                     do this 3x

VERSE 6 Both Guitars                                Lost in my own world
-----------------------------------------------     Lost in my own world
-----------------------------------------------     Lost in my own world
-----------------------------------------------     Lost in my own world
-----------------------------------------------     Lost in my own world
--8--2-2-2-2--2--8--2-2-2-2--2-----------------     Lost in my own world
--6--0-0-0-0--0--6--0-0-0-0--0-----------------     Lost in my own world
                   do this 8x                       Lost in my own world
                       END


Comments