Static X - Black And White Chords & Tabs

 

Black And White Chords & Tabs

Static X Chords & Tabs

Version: 5 Type: Tab 0 ratings
1 star 2 stars 3 stars 4 stars 5 stars
comments

Black And White Tab

   
static-X. Black and White                by Chris B


this song is dead easy


all the Black and white tabs that i've seen so far sound poo 
so i tabed it my self i dont no if its right but it sounds 
better than every tab i've heard so far.



chords used:- ? (xx0133)	d= strum down
              ? (x35555)	u= strum up
              ? (111111)	M= mute 
              ? (333333)
              ? (444444)		(were it says (d  M  d u d u......) under the first 
					section let the first down sroke ring for about a second
					then place your hand on the strings so it makes no sound 
VERSE					for about a second, then carry on.)



e	|-3----X----3-3-3-3-3---X---3-3---3-3-3-3-3----5----|
B	|-3----X----3-3-3-3-3---X---3-3---3-3-3-3-3----5----|
G	|-1----X----1-1-1-1-1---X---1-1---1-1-1-1-1----5----|
D	|-0----X----0-0-0-0-0---X---0-0---0-0-0-0-0----5----|   X4
A	|------X----------------X---------------------------|
E	|------X----------------X---------------------------|
        
         (d - (M)   d-u-d-u-d  (M)  u-d  d-u-d-u-d    u (hold for 2 seconds)      


BRIDGE

		
[ Tab from: http://www.guitartabs.cc/tabs/s/static_x/black_and_white_tab_ver_5.html ]
      (AT 5 SECOND INTERVALS STRUM DOWN) (and mute after 1sec)
e	-3-------------3-------------3-------------3-------|	
B	-3-------------3-------------3-------------3-------|
G	-1-------------1-------------1-------------1-------|
D	-0-------------0-------------0-------------0-------|   X4
A	---------------------------------------------------|
E	---------------------------------------------------|

        (d (5-seconds) d (5-seconds) d (5-seconds) d (5-seconds)
 

COROUS

	
           (there is no mutes in the corous, let it ring)
e	---1-------3------4------3------1------------------		 3
B	---1-------3------4------3------1------------------		 3
G	---1-------3------4------3------1------------------ X2  END ON = 3
D	---1-------3------4------3------1------------------		 3
A	---1-------3------4------3------1------------------		 3
E	---1-------3------4------3------1------------------		 3

           d       d      d      d      d        






SO THIS IS HOW YOU PLAY IT ALL TOGETHER      



	Verse x4   -    bridge x4   -   corous x2

	verse x2   -    bridge x4   -   corous x2

	verse x4   -    corous x4   -   ( weird noizes )  wait for 17seconds then:-

	corous X4    -    verse x8   =    END OF SONG


				 

		I SPEND AGES TABBING THIS SONG SO YOU CAN GET IT PERFECT

		IT SHOULD MAKE SENSE GOOD LUCK



 
ANOTHER ONE OF MY TABS IS=   Layla6 - guitar tab

thats a cool song









                            
Comments