Static X - Black And White Chords & Tabs

 

Black And White Chords & Tabs

Static X Chords & Tabs

Version: 4 Type: Tab 0 ratings
1 star 2 stars 3 stars 4 stars 5 stars
comments

Black And White Tab

   
Static X - Black and white
Tabbed by Mudmaniac
Tuning C G C F A D
(All Distorted) 

INTRO
|------------------------|------------------------|------------------------
|------------------------|------------------------|------------------------
|-333--33333---333--333--|-333--33333---333--333--|-333--33333---333--333--
|-222--22222--0222--2220-|-222--22222--0222--2220-|-222--22222--0222--2220-
|-111--11111--0111--1110-|-111--11111--0111--1110-|-111--11111--0111--1110-
|-------------0--------0-|-------------0--------0-|-------------0--------0-
|--------------------------|
|--------------------------|
|-333--33333---333--333--3-|
|-222--22222--0222--2220-2-|
|-111--11111--0111--1110-1-|
|-------------0--------0---|

VERSE
|---------------------------------------------------------|
|---------------------------------------------------------|
|-------------------------------------------------------3-|
|-------------------------------------------------------2-| x2
|-------------------------------------------------------1-| 
|---------------------------------------------------------|
Lost in my own world, lost in my own world, lost in my.....

|---------------------------------------------------------|
|---------------------------------------------------------|
|-------------------------------------------------------3-|
|-------------------------------------------------------2-| x2
|-------------------------------------------------------1-| 
|---------------------------------------------------------|
Getting to the right, getting to the wrong, getting mine...
[ Tab from: http://www.guitartabs.cc/tabs/s/static_x/black_and_white_tab_ver_4.html ]
CHORUS
|-----------------------------------------------------------------|
|-----------------------------------------------------------------|
|-----------------------------------------------------------------|
|-1----------------3-----------------4---3------------------------|
|-1----------------3-----------------4---3------------------------|
|-1----------------3-----------------4---3------------------------|
    Losing your mind, losing your mind, its blurring, its fading...

|-----------------------------------------------|
|-----------------------------------------------|
|-----------------------------------------------|
|-1-----3--------4-----3------------------------|
|-1-----3--------4-----3------------------------|
|-1-----3--------4-----3------------------------|
   Your souls on fire, its black and white!

BACK TO INTRO, PLAY ONCE

VERSE 2 (Same as verse one)
|---------------------------------------------------------|
|---------------------------------------------------------|
|-------------------------------------------------------3-|
|-------------------------------------------------------2-| x2
|-------------------------------------------------------1-| 
|---------------------------------------------------------|
Burning inside, burning inside, burning into white.........

|---------------------------------------------------------|
|---------------------------------------------------------|
|-------------------------------------------------------3-|
|-------------------------------------------------------2-| x2
|-------------------------------------------------------1-| 
|---------------------------------------------------------|
Yourself collides, yourself collides, yourself into mine...

You can work out the rest of the song from the stuff above.
This is one of the best songs off their new album "Machine".
This is my first tab, so its probabley wrong, but it sounds
ok to me...cheers, Mud

Comments