Static X - Black And White Chords & Tabs

 

Black And White Chords & Tabs

Static X Chords & Tabs

Version: 12 Type: Tab 0 ratings
1 star 2 stars 3 stars 4 stars 5 stars
comments

Black And White Tab

   
Static-X - Black and White
Tabbed By: JaXoN
Email: martin_jackson@ntlworld.com

Tuning: 2 Steps Down (C F A# D# G C)



Riff 1:
|------------------------------------------|
|------------------------------------------|
|-5-5-5-5--5-5-5-5-----5-5-5-5--5-5-5-5----|
|-4-4-4-4--4-4-4-4-----4-4-4-4--4-4-4-4----|
|-3-3-3-3--3-3-3-3-----3-3-3-3--3-3-3-3----|
|-------------------0--------------------0-|

Riff 2:
You can hear the seperate guitar parts if you listen through just one headphone
or use the volume control panel on your computer to hear through only one of the speakers,
because the two guitars are panned either side.
|------------------------------------------|
|------------------------------------------|
|-5-5-5-5--5-5-5-5-----5-5-5-5--5-5-5-5----|
|-x-x-x-x--x-x-x-x-----x-x-x-x--x-x-x-x----|
|-3-3-3-3--3-3-3-3-----3-3-3-3--3-3-3-3----|
|-------------------0--------------------0-|
|
|------------------------------------------|
|------------------------------------------|
|-11111111-11111111----11111111-11111111---|
|-x-x-x-x--x-x-x-x-----x-x-x-x--x-x-x-x----|
|-9-9-9-9--9-9-9-9-----9-9-9-9--9-9-9-9----|
|-------------------0--------------------0-|
11s not 1s
[ Tab from: http://www.guitartabs.cc/tabs/s/static_x/black_and_white_tab_ver_12.html ]
Riff 3:

|----------|
|----------|
|-5-5-5-5--|
|-x-x-x-x--|
|-3-3-3-3--|
|----------|
|
|----------|
|----------|
|-11111111-|
|-x-x-x-x--|
|-9-9-9-9--|
|----------|
11s not 1s

Riff 4:

|------------------------------------|
|------------------------------------|
|------------------------------------|
|-3--------5--------6--------5-------|
|-3--------5--------6--------5-------|
|-1--------3--------4--------3-------|

Riff 5:

|------------------------------------|
|------------------------------------|
|------------------------------------|
|-3--------5--------6--------5-------|
|-3--------5--------6--------5-------|
|-1--------3--------4--------3-------|
|
|------------------------------------|
|------------------------------------|
|-8--------10-------11-------10------|
|-x--------x--------x--------x-------|  play each of these octaves 16 times
|-6--------8--------9--------8-------|
|------------------------------------|

Structure:
Intro - riff 1 x2
      - riff 2 x2
Verse - riff 3 x4
Chorus - riff 4 x2
Interlude - riff 2 x2
Verse - riff 3 x4
Chorus - riff 4 x2
Interlude - riff 2 x4
Chorus - riff 4 x2
       - riff 5 x2
Bridge - riff 3 x2
Chorus - riff 4 x2
       - riff 5 x2
Outro - riff 2 x8
Comments