Static X - Black And White Chords & Tabs

 

Black And White Chords & Tabs

Static X Chords & Tabs

Version: 11 Type: Tab 0 ratings
1 star 2 stars 3 stars 4 stars 5 stars
comments

Black And White Tab

   
-------------------------------------------------------------------------------
			     Black & White - Static-x
-------------------------------------------------------------------------------
Tabbed by: ozzy1234
Email:nathan_anon64@hotmail.com

Tuning:E,A,D,G,B,E
                          INTRO                            X2
e|---------------------------------------------------------------------------|
B|---------------------------------------------------------------------------|
G|----4--4----4--4--5-----4--4----4--4----3----------------------------------|
D|----4--4----4--4--5-----4--4----4--4----3----------------------------------|
A|----4--4----4--4--5-----4--4----4--4----3----------------------------------|
E|---------------------------------------------------------------------------|

e|--------------------------------------------------------------------------|
B|--------------------------------------------------------------------------|
G|-----------------------------------------------666------------------------|
D|-----------------------------------------------555------------------------|
A|-----------------------------------------------555------------------------|
E|--------------------------------------------------------------------------|

e|--------------------------------------------------------------------------|
B|--------------------------------------------------------------------------|
G|------------------------------------------------555-----------------------|
D|------------------------------------------------444-----------------------|
A|------------------------------------------------444-----------------------|
E|--------------------------------------------------------------------------|

e|--------------------------------------------------------------------------|
B|--------------------------------------------------------------------------|
G|-------------------------------------------------666----------------------|
D|-------------------------------------------------555----------------------|
A|-------------------------------------------------555----------------------|
E|--------------------------------------------------------------------------|
                 CHORUS                             X2
e|--------------------------------------------------------------------------|
B|--------------------------------------------------------------------------|
G|--------------------------------------------------------------------------|
D|-------1-------3------4------3--------------------------------------------|
A|-------1-------3------4------3--------------------------------------------|
E|-------1-------3------4------3--------------------------------------------|

e|--------------------------------------------------------------------------|
B|--------------------------------------------------------------------------|
G|-------4--4----4--4--3------4--4----4--4--2-------------------------------|
D|-------4--4----4--4--3------4--4----4--4--2-------------------------------|
A|-------4--4----4--4--3------4--4----4--4--2-------------------------------|
E|--------------------------------------------------------------------------|
[ Tab from: http://www.guitartabs.cc/tabs/s/static_x/black_and_white_tab_ver_11.html ]
e|---------------------------------------------------------------------------|
B|---------------------------------------------------------------------------|
G|-------------------------------------------------------666-----------------|
D|-------------------------------------------------------555-----------------|
A|-------------------------------------------------------555-----------------|
E|---------------------------------------------------------------------------|

e|---------------------------------------------------------------------------|
B|---------------------------------------------------------------------------|
G|-------------------------------------------------------555-----------------|
D|-------------------------------------------------------444-----------------|
A|-------------------------------------------------------444-----------------|
E|---------------------------------------------------------------------------|

e|---------------------------------------------------------------------------|
B|---------------------------------------------------------------------------|
G|--------------------------------------------------------666----------------|
D|--------------------------------------------------------555----------------|
A|--------------------------------------------------------555----------------|
E|---------------------------------------------------------------------------|
      guitar 1 does 4x and guitar 2 does 2x         2nd CHORUS
e|--------------------------------------------------------------------------|
B|--------------------------------------------------------------------------|
G|--------------------------------------------------------------------------|
D|-----1------3-----4------1------------------------------------------------|
A|-----1------3-----4------1------------------------------------------------|
E|-----1------3-----4------1------------------------------------------------|
          Guitar 2 does this X2 while guitar 1 is doing the chorus
e|-----5555555577777779999999977777------------------------------------------|
B|-----5555555577777779999999977777------------------------------------------|
G|---------------------------------------------------------------------------|
d----------------------------------------------------------------------------|
A|---------------------------------------------------------------------------|
E|---------------------------------------------------------------------------|
       Do the same as 2nd chorus
e|--------------------------------------------------------------------------|
B|--------------------------------------------------------------------------|
G|--------------------------------------------------------------------------|
D|-------1--------3--------4-------1----------------------------------------|
A|-------1--------3--------4-------1----------------------------------------|
E|-------1--------3--------4-------1----------------------------------------|
            guitar 2
e|--------55555555555577777777777999999999977777777-------------------------|
B|--------55555555555577777777777999999999977777777-------------------------|
G|--------------------------------------------------------------------------|
D|--------------------------------------------------------------------------|
A|--------------------------------------------------------------------------|
E|--------------------------------------------------------------------------|
                                  X4
e|--------------------------------------------------------------------------|
B|--------------------------------------------------------------------------|
G|--------4--4-----4--4--5-------4--4----4--4--3----------------------------|
D|--------4--4-----4--4--5-------4--4----4--4--3----------------------------|
A|--------4--4-----4--4--5-------4--4----4--4--3----------------------------|
E|--------------------------------------------------------------------------|


if any comments on this tab email me at nathan_anon64@hotmail.com
Comments