Static X - Black And White Chords & Tabs

 

Black And White Chords & Tabs

Static X Chords & Tabs

Version: 10 Type: Tab 0 ratings
1 star 2 stars 3 stars 4 stars 5 stars
comments

Black And White Tab

Artist/Band: Static-X
Song Tittle: Black And White
Transcribed By: Daniel Luengas
E-Mail: danielluengas@hotmail.com


Intro:

D|-----------------------------|
A|-----------------------------|
F|-----------------------------|  
C|-----------------------------| x4 
G|--8-8-8-8--0--8-8-8-8--0-----|
C|--8-8-8-8--0--8-8-8-8--0-----|

Verse:

D|--------------------|
A|--------------------|
F|--------------------|
C|--------------------|  x4
G|----8-8-------------|
C|----8-8-------------|

Chorus:

D|--------------------|
A|--------------------|
F|--------------------|
C|--------------------| x2
G|---8--9--11--9------|
C|---8--9--11--9------|

Intro:

D|-----------------------------|
A|-----------------------------|
F|-----------------------------|  
C|-----------------------------| x2 
G|--8-8-8-8--0--8-8-8-8--0-----|
C|--8-8-8-8--0--8-8-8-8--0-----|

Verse 2:

D|--------------------|
A|--------------------|
F|--------------------|
C|--------------------|  x4
G|----8-8-------------|
C|----8-8-------------|

Chorus:
[ Tab from: http://www.guitartabs.cc/tabs/s/static_x/black_and_white_tab_ver_10.html ]
D|--------------------|
A|--------------------|
F|--------------------|
C|--------------------| x2
G|---8--9--11--9------|
C|---8--9--11--9------|

Intro:

D|-----------------------------|
A|-----------------------------|
F|-----------------------------|  
C|-----------------------------| x4 
G|--8-8-8-8--0--8-8-8-8--0-----|
C|--8-8-8-8--0--8-8-8-8--0-----|

Chorus:

D|--------------------|
A|--------------------|
F|--------------------|
C|--------------------| x4
G|---8--9--11--9------|
C|---8--9--11--9------|

Bridge:

D|------------------------------|
A|------------------------------|
F|------------------------------|
C|------------------------------| x4
G|---8-8---13-14-13--13-14-13---|
C|---8-8------------------------|

Chorus:

D|--------------------|
A|--------------------|
F|--------------------|
C|--------------------| x4
G|---8--9--11--9------|
C|---8--9--11--9------|

Intro:

D|-----------------------------|
A|-----------------------------|
F|-----------------------------|  
C|-----------------------------| x8 
G|--8-8-8-8--0--8-8-8-8--0-----|
C|--8-8-8-8--0--8-8-8-8--0-----|


OK.. That's it hope you like it, Any comments or Suggestions e-mail me at:
danielluengas@hotmail.com
Comments