Static X - Black And White Chords & Tabs

 

Black And White Chords & Tabs

Static X Chords & Tabs

Version: 2 Type: Bass Tab 0 ratings
1 star 2 stars 3 stars 4 stars 5 stars
comments

Black And White Bass Tab

   
-------------------------------------------------------------------------------
			     Black and white - Static - x
-------------------------------------------------------------------------------

Tabbed By : Zero is great man
Tuning: Whole step down for a 5-string bass: ADGCF

| /  slide up
| \  slide down
| h  hammer-on
| p  pull-off
| ~  vibrato
| +  harmonic
| x  Mute note
[ Tab from: http://www.guitartabs.cc/tabs/s/static_x/black_and_white_btab_ver_2.html ]
Intro/Fill: "lost in my own world......"
F|-----------------------|
C|-----------------------|
G|-----------------------|
D|-6-------6-6-6---------|
A|---0-2-3-------0-2-3-0-|

Verse: "Lost in my own world,(x2), lost in my!"
F|--------|
C|--------|
G|------1-|
D|--------|
A|-6\0----|

Chorus/Outro: "Losing your mind, Losing your mind"
F|--------------------------|
C|--------------------------|
G|--------------------------|
D|--------0-0-0-1-1-1-0-0-0-|
A|-3-3-3--------------------|

That's basically it, That's everything, These thre parts are just
repeated again and agian. Feel free to comment, correct, insult, rate, etc.
Enjoy!
===============================================================================
Comments