Static-x - All In Wait Chords & Tabs

 

All In Wait Chords & Tabs

Static-x Chords & Tabs

Version: 1 Type: Tab 0 ratings
1 star 2 stars 3 stars 4 stars 5 stars
comments

All In Wait Tab

   
Static-X - All In Wait - Shadow Zone

Tabbed by Elvisz (elvisz@kornkids.com)
Tuning : 6 String Tuned Low to High (C G C F a d) (Drop d)

Vocal: Wayne Static
Background Vocal: Tony Campos
Guitar1: Wayne Static
Guitar2: Trip Rex Eisen
Bass: Tony Campos
Drum: Nick Oshiro

Intro:(Guitar1)
d|-----------------|
a|-----------------|
F|-----------------|
C|-X-X-X-X-X-X-X-X-|
G|-X-X-X-X-X-X-X-X-|
C|-X-X-X-X-X-X-X-X-|

Pre-Verse:(Guitar1 & Guitar2)
d|--------------------------------------------------|
a|--------------------------------------------------|
F|-777777771010101010101010999999991212121212121212-|
C|-xxxxxxxxxxxxxxxxxxxxxxxxxxxxxxxxxxxxxxxxxxxxxxxx-|
G|-55555555 8 8 8 8 8 8 8 8777777771010101010101010-|
C|--------------------------------------------------|

d|------------------------------------------|
a|------------------------------------------|
F|-7777777710101010101010109999999988888888-|
C|-xxxxxxxxxxxxxxxxxxxxxxxxxxxxxxxxxxxxxxxx-|
G|-55555555 8 8 8 8 8 8 8 87777777766666666-|
C|------------------------------------------|

Verse:
d|-----------------|
a|-----------------|
F|-777777777777878-|	(Guitar2)
C|-----------------|
G|-----------------|
C|-----------------|

d|--------|-----------------------|
a|--------|-----------------------|
F|--------|-----------------------|	(Guitar1)
C|--------|-----------------------|
G|-00h1r0-|-00h1r0-331-00h1r0-33x-|
C|-00h1r0-|-00h1r0-331-00h1r0-33x-|
   ......   ...... ... .. . . ..     .palm mute

Chorus1:(Guitar1 & Guitar2)
d|------------------------------------------|
a|------------------------------------------|
F|-7777777710101010101010109999999988888888-|
C|-xxxxxxxxxxxxxxxxxxxxxxxxxxxxxxxxxxxxxxxx-|
G|-55555555 8 8 8 8 8 8 8 87777777766666666-|
C|------------------------------------------|

Verse:
d|-----------------|
a|-----------------|
F|-777777777777878-|	(Guitar2)
C|-----------------|
G|-----------------|
C|-----------------|

d|--------|-----------------------|
a|--------|-----------------------|
F|--------|-----------------------|	(Guitar1)
C|--------|-----------------------|
G|-00h1r0-|-00h1r0-331-00h1r0-33x-|
C|-00h1r0-|-00h1r0-331-00h1r0-33x-|
   ......   ...... ... .. . . ..     .palm mute
[ Tab from: http://www.guitartabs.cc/tabs/s/static_x/all_in_wait_tab.html ]
Chorus2:(Guitar1 & Guitar2)
d|--------------------------------------------------|
a|--------------------------------------------------|
F|-777777771010101010101010999999991212121212121212-|
C|-xxxxxxxxxxxxxxxxxxxxxxxxxxxxxxxxxxxxxxxxxxxxxxxx-|
G|-55555555 8 8 8 8 8 8 8 8777777771010101010101010-|
C|--------------------------------------------------|

d|------------------------------------------|
a|------------------------------------------|
F|-7777777710101010101010109999999988888888-|
C|-xxxxxxxxxxxxxxxxxxxxxxxxxxxxxxxxxxxxxxxx-|
G|-55555555 8 8 8 8 8 8 8 87777777766666666-|
C|------------------------------------------|

Bridge1:(Guitar1 & Guitar2)
d|-----------------------|-------------------|
a|-----------------------|-------------------|
F|-----------------------|-------------------|
C|-----------------------|-------------------|
G|-0000-0-0-0--0-0-0-0-0-|-0000-0-0-0-0--0-0-|
C|-0000-0-0-0--0-0-0-0-0-|-0000-0-0-0-0--0-0-|
   .... . . .  . . . . .   .... . . . .  . .   .palm mute

Bridge2:
d|-----------------------|-------------------|
a|-----------------------|-------------------|
F|-----------------------|-------------------|	(Guitar1)
C|-----------------------|-------------------|
G|-0000-0-0-0--0-0-0-0-0-|-0000-0-0-0-0--0-0-|
C|-0000-0-0-0--0-0-0-0-0-|-0000-0-0-0-0--0-0-|
   .... . . .  . . . . .   .... . . . .  . .   .palm mute

d|------------------------------------------|
a|------------------------------------------|
F|-7777777710101010101010109999999988888888-|	(Guitar2)
C|-xxxxxxxxxxxxxxxxxxxxxxxxxxxxxxxxxxxxxxxx-|
G|-55555555 8 8 8 8 8 8 8 87777777766666666-|
C|------------------------------------------|

Chorus3:(Guitar1 & Guitar2)
d|--------------------------------------------------|
a|--------------------------------------------------|
F|-777777771010101010101010999999991212121212121212-|
C|-xxxxxxxxxxxxxxxxxxxxxxxxxxxxxxxxxxxxxxxxxxxxxxxx-|
G|-55555555 8 8 8 8 8 8 8 8777777771010101010101010-|
C|--------------------------------------------------|

d|------------------------------------------|
a|------------------------------------------|
F|-7777777710101010101010109999999988888888-|
C|-xxxxxxxxxxxxxxxxxxxxxxxxxxxxxxxxxxxxxxxx-|
G|-55555555 8 8 8 8 8 8 8 87777777766666666-|
C|------------------------------------------|

Outro:
d|------------------------------------------|
a|------------------------------------------|
F|-7777777710101010101010109999999988888888-|	(Guitar1)
C|-xxxxxxxxxxxxxxxxxxxxxxxxxxxxxxxxxxxxxxxx-|
G|-55555555 8 8 8 8 8 8 8 87777777766666666-|
C|------------------------------------------|

d|-101010101010101010101010111011-|
a|--------------------------------|
F|--------------------------------|	(Guitar2)
C|--------------------------------|
G|--------------------------------|
C|--------------------------------|
Comments