Static Cling - No Batteries Chords & Tabs

 

No Batteries Chords & Tabs

Static Cling Chords & Tabs

Version: 1 Type: Tab 0 ratings
1 star 2 stars 3 stars 4 stars 5 stars
comments

No Batteries Tab

SONG TITLE - NO BATTERIES
GUITARIST - PETER SHILALE
BAND - STATIC CLING

Verse :

e------------------------------
b------------------------------
g------5---------7-------------
d-5----5----5----7-------------
a-5----3----5----5-------------
e-3---------3------------------

Chourus :
[ Tab from: http://www.guitartabs.cc/tabs/s/static_cling/no_batteries_tab.html ]
e----------------------------------------
b----------------------------------------
g-99999999--77777777---------------------
d-99999999--77777777--77777777--555555---
a-77777777--55555555--77777777--555555---
e---------------------55555555--333333---

Solo:

e-3333333333--8888888888--3333333333--10-10-10-10-10-10-10-10--
b-3333333333--8888888888--3333333333--10-10-10-10-10-10-10-10--
g--------------------------------------------------------------
d--------------------------------------------------------------
a--------------------------------------------------------------
e--------------------------------------------------------------
Comments