Static Cling - Man Vs Society Chords & Tabs

 

Man Vs Society Chords & Tabs

Static Cling Chords & Tabs

Version: 1 Type: Tab 0 ratings
1 star 2 stars 3 stars 4 stars 5 stars
comments

Man Vs Society Tab

MAN VS SOCIETY
STATIC CLING
GUITARIST: PETER SHILALE

 VERSE:

e-------------
b-------------
g---------22--
d--77-----22--
a--77-----00--
e--55---------(x4)


  CHORUS:
[ Tab from: http://www.guitartabs.cc/tabs/s/static_cling/man_vs_society_tab.html ]
e-----------------
b-----------------
g-----------------
d--7--7-----------
a--7--7-----------
e--5--5-----------
                      (let it ring)

  (this is mostly a bass song so Peter only uses one chord)



Comments