Static Amp - Black Mirrors Chords & Tabs

 

Black Mirrors Chords & Tabs

Static Amp Chords & Tabs

Version: 1 Type: Tab 0 ratings
1 star 2 stars 3 stars 4 stars 5 stars
comments

Black Mirrors Tab

   
Band: Static Amp
Song: Black Mirrors (For Me)
Album: All Beautiful Is Lost
Tabbed by: god_maker@hotmail.com
                   smackdown760@hotmail.com 

Legend
X = palm mute
/ = slide down
\ = slide up

This is the first song ever by Static Amp. Itís well-written and great to play. 
We KNOW itís right. So if any other people see this, and make variations, THIS is 
the original. This is actually written by the lead vocalist and lead guitarist for 
the band. Itís written for 3 guitars (but making variations between 2 would be fine ďalso, 
one guitar can still perform this songĒ), 1 bass, and 1 drum.

The strings are tuned in standard E and is written like:
E
B
G
D
A
E


Intro (Clean): Guitar 3
|----------|----------|--------|----------|-
|----------|----------|--------|----------|-
|----------|----------|--------|----------|-
|----5-5/--|--3-3-3/--|--1-1\--|--3-3-3---|-   1x
|----5-5/--|--3-3-3/--|--1-1\--|--3-3-3---|-
|----5-5/--|--3-3-3/--|--1-1\--|--3-3-3---|-

Verse 1 (Distorted): Guitar 2
|----------|----------|--------|----------|-
|----------|----------|--------|----------|-
|----------|----------|--------|----------|-
|----5-5/--|--3-3-3/--|--1-1\--|--3-3-3---|-
|----5-5/--|--3-3-3/--|--1-1\--|--3-3-3---|-
|----5-5/--|--3-3-3/--|--1-1\--|--3-3-3---|-

Chorus (Distorted): Guitar 1
|----------------------------------------|-
|--1-1-1-----1-1-1----1-1-1--------------|-
|----------------------------------------|-
|----------------------------------------|-
|--2-2-2-----2-2-2----2-2-2--------------|-
|------------3-3-3-----------------------|-

Verse 2 (Distorted): Guitar 2
|----------|----------|--------|----------|-
|----------|----------|--------|----------|-
|----------|----------|--------|----------|-
|----5-5/--|--3-3-3/--|--1-1\--|--3-3-3---|-
|----5-5/--|--3-3-3/--|--1-1\--|--3-3-3---|-
|----5-5/--|--3-3-3/--|--1-1\--|--3-3-3---|-

Chorus (Distorted): Guitar 1
|----------------------------------------|-
|--1-1-1-----1-1-1----1-1-1--------------|-
|----------------------------------------|-
|----------------------------------------|-
|--2-2-2-----2-2-2----2-2-2--------------|-
|------------3-3-3-----------------------|-
[ Tab from: http://www.guitartabs.cc/tabs/s/static_amp/black_mirrors_tab.html ]
Verse 3 (Distorted): Guitar 2
|----------|----------|--------|----------|-
|----------|----------|--------|----------|-
|----------|----------|--------|----------|-
|----5-5/--|--3-3-3/--|--1-1\--|--3-3-3---|-  
|----5-5/--|--3-3-3/--|--1-1\--|--3-3-3---|-
|----5-5/--|--3-3-3/--|--1-1\--|--3-3-3---|-

Verse 4 (Distorted and Palm Muted): Guitar 1 
|-------------------------------------------------|-
|-------------------------------------------------|-
|-------------------------------------------------|-
|-------------------------------------------------|-   
|--------------4x4x4x4x----------------4x4x4x4x---|-
|-3x3x3x3x3x-------------3x3x3x3x3x---------------|-

Verse 5 (Distorted): Guitar 2
|----------|----------|--------|----------|-
|----------|----------|--------|----------|-
|----------|----------|--------|----------|-
|----5-5/--|--3-3-3/--|--1-1\--|--3-3-3---|-
|----5-5/--|--3-3-3/--|--1-1\--|--3-3-3---|-
|----5-5/--|--3-3-3/--|--1-1\--|--3-3-3---|-

Chorus (Distorted): Guitar 1
|----------------------------------------|-
|--1-1-1-----1-1-1----1-1-1--------------|-
|----------------------------------------|-
|----------------------------------------|- 
|--2-2-2-----2-2-2----2-2-2--------------|-
|------------3-3-3-----------------------|-

Outro (Clean): Guitar 3
|----------|----------|--------|----------|-
|----------|----------|--------|----------|-
|----------|----------|--------|----------|-
|----5-5/--|--3-3-3/--|--1-1\--|--3-3-3---|-   1x
|----5-5/--|--3-3-3/--|--1-1\--|--3-3-3---|-
|----5-5/--|--3-3-3/--|--1-1\--|--3-3-3---|-

(Fade Out)

Lyrics
Left on my own
They donít believe
In Me
Iíll die alone
Away from this pain
Nothing to gain
For Me

This is the last
The last time
I feel this hurt
So Iíll say goodbye
Show no emotion
Donít even cry
(BG: For me)
Cause

Chorus
In the middle of black halls around me
The hatred in the black mirrors surrounding
Shadows in the hall stare back at me
Visions of the past press down on me

I hear the rain
As it shatters down
Onto the streets
Into the ground

I still hear screams
Inside my head
I lost my way
Until today

(Chorus)

Iíll find my freedom
Inside my lies
No time for petty alibiís
Iíll feel this hatred
As it bleeds
(BG: For me)

(Fade into next verse)
Itís too lateÖ.(BG: For me)
Iíll fade awayÖ.(BG: For me)
Without a traceÖ.(BG: Iíll Break)

Now itís the end
Why do you pretend
The suffer is fake
Thereís no Escape

(Chorus x2)

(Intro End)

© Static Amp Entertainment 2002, All Rights Reserved
Comments