Static-x - Otsegolation Chords & Tabs

 

Otsegolation Chords & Tabs

Static-x Chords & Tabs

Version: 1 Type: Bass Tab 0 ratings
1 star 2 stars 3 stars 4 stars 5 stars
comments

Otsegolation Bass Tab

band:static-x
song: otsegolation
album: wisconsin death trip
written for a 5-string tunned down one whole step
tabbed by patrick glauser, e-mail about corrections or whatever!
duncan-x@anti-social.com

starting. do 8 times
|-----
|-----
|-----
|-----
|--5--

after that part  do that a few times
|----------------------
|---4-4-4-4--4-4-4-4---
|----------------------
|----------------------
|--0--------0----------
[ Tab from: http://www.guitartabs.cc/tabs/s/static-x/otsegolation_btab.html ]
do this a few times before he starts singing and when he sings
|--------------
|--------------
|--------------
|--------------
|--2-2-2\7-----

when he sings "isolation" and ending
you also have to do this part one time before at 2:17
|------------------------
|------------------------
|------------------------
|------------------------
|--5-5-0--5-5-0--5-5-0---

you can figure out how many times to do it and the timing.

Comments