Static-x - I Am Chords & Tabs

 

I Am Chords & Tabs

Static-x Chords & Tabs

Version: 1 Type: Bass Tab 0 ratings
1 star 2 stars 3 stars 4 stars 5 stars
comments

I Am Bass Tab

band: static-x
song: i am
album: wisconsin death trip
this tab is written for a 5-string bass tuned down one whole step
written by patrick glauser. corrections or whatever e-mail me at 
duncan-x@anti-social.com

bass enters at (time 0:27) 
do this 8 times.
|--------------------
|--------------------
|--------------------
|--------------------
|-0-0----0-0-0-------

part when he starts singing
do first part and second part first time
the second time just do the first part
|----------------------|---------------
|----------------------|---------------
|----------------------|---------------
|----------------------|---------------
|-0-0-----0-0-----0-0--|--1--0-0-0-0---
[ Tab from: http://www.guitartabs.cc/tabs/s/static-x/i_am_btab.html ]
chorus ("older....elder....i am")
|--------------------------------------------------
|--------------------------------------------------
|--------0-0-------0-0--------0-0------------------
|--------------------------------------------------
|-0-0-0------0-0-0------0-0-0------0-0-0---1-2-3---

interlude (like the starting)do that for a while
|---------------------------
|---------------------------
|---------------------------
|---------------------------
|-x-x-x-x-x-x-x-x-x-x-x-x-x-

ending | do this a few times until the end
|------|----------------
|------|----------------
|------|----------------
|------|----------------
|-0-0--|-0-0-0-0-0-0----

you can figure out the timing of each part and when to play it.
sounds ok to me!!

Comments