State Radio - Waitress Chords & Tabs

 

Waitress Chords & Tabs

State Radio Chords & Tabs

Version: 1 Type: Tab 0 ratings
1 star 2 stars 3 stars 4 stars 5 stars
comments

Waitress Tab

   
State Radio
Simmer Kane
The Waitress
Tabbed by Owen Sakovics
Tuning: Eb Ab Db Gb Bb Eb
www.tabsinonefellswoop.com

 Gm	Bb	F	Gm
-3------6-------1-------3--|
-3------6-------1-------3--|
-3------7-------2-------3--|	x4
-5------8-------3-------5--|
-5------8-------3-------5--|
-3------6-------1-------3--|

 Bb	Dm	Gm	Gm	Eb	Dm	F	F
-6------5-------3-------3-------6-------5-------1-------1--|
-6------6-------3-------3-------8-------6-------1-------1--|
-7------7-------3-------3-------8-------7-------2-------2--|	x2
-8------7-------5-------5-------8-------7-------3-------3--|
-8------5-------5-------5-------6-------5-------3-------3--|
-6--------------3-------3-----------------------1-------1--|

-------------------------------------------------------------------------------|
-------------------------------------------------------------------------------|
-----------------------------5--5h7-7-5----------------------------------------|	x1
-5-3-3h5---5-3-3h5---5-3-3h5------------8-5---5--3-3h5--5--3-3h5--5--3-3h5-----|
-5---------5---------5------------------------5---------5---------5---------5--|
-3---------3---------3------------------------3---------3---------3---------3--|

 Gm	Bb	F	Gm
-3------6-------1-------3--|
-3------6-------1-------3--|
-3------7-------2-------3--|	x2
-5------8-------3-------5--|
-5------8-------3-------5--|
-3------6-------1-------3--|

 Gm	Gm	Bb	Cm	Dm	Gm	Cm	Cm	Cm	Gm
-3------3-------6-------3-------5-------3-------3-------3-------3-------3--|
-3------3-------6-------4-------6-------3-------4-------4-------4-------3--|
-3------3-------7-------5-------7-------3-------5-------5-------5-------3--|	x1
-5------5-------8-------5-------7-------5-------5-------5-------5-------5--|
-5------5-------8-------3-------5-------5-------3-------3-------3-------5--|
-3------3-------6-----------------------3-------------------------------3--|
[ Tab from: http://www.guitartabs.cc/tabs/s/state_radio/waitress_tab.html ]
 Bb	Dm	Gm	Gm	Eb	Dm	F	F
-6------5-------3-------3-------6-------5-------1-------1--|
-6------6-------3-------3-------8-------6-------1-------1--|
-7------7-------3-------3-------8-------7-------2-------2--|	x2
-8------7-------5-------5-------8-------7-------3-------3--|
-8------5-------5-------5-------6-------5-------3-------3--|
-6--------------3-------3-----------------------1-------1--|

-------------------------------------------------------------------------------------------|
-------------------------------------------------------------------------------------------|
-----------------------------5--5h7-7-5------------------------------------5--5h7-7-5------|	x1
-5-3-3h5---5-3-3h5---5-3-3h5------------8-5---5--3-3h5--5--3-3h5--5--3-3h5------------8-5--|
-5---------5---------5------------------------5---------5---------5------------------------|
-3---------3---------3------------------------3---------3---------3------------------------|

-------------------------------------------------------------------------------|
-------------------------------------------------------------------------------|
-----------------------------5--5h7-7-5----------------------------------------|	x1
-5-3-3h5---5-3-3h5---5-3-3h5------------8-5---5--3-3h5--5--3-3h5--5--3-3h5-----|
-5---------5---------5------------------------5---------5---------5---------5--|
-3---------3---------3------------------------3---------3---------3---------3--|

 Gm	Bb	F	Gm
-3------6-------1-------3--|
-3------6-------1-------3--|
-3------7-------2-------3--|	x2
-5------8-------3-------5--|
-5------8-------3-------5--|
-3------6-------1-------3--|

 Bb	Cm	Dm	Gm	Cm	Cm	Cm	Gm
-6------3-------5-------3-------3-------3-------3-------3--|
-6------4-------6-------3-------4-------4-------4-------3--|
-7------5-------7-------3-------5-------5-------5-------3--|	x2
-8------5-------7-------5-------5-------5-------5-------5--|
-8------3-------5-------5-------3-------3-------3-------5--|
-6----------------------3-------------------------------3--|

 Bb	Dm	Gm	Gm	Eb	Dm	F	F
-6------5-------3-------3-------6-------5-------1-------1--|
-6------6-------3-------3-------8-------6-------1-------1--|
-7------7-------3-------3-------8-------7-------2-------2--|	x4
-8------7-------5-------5-------8-------7-------3-------3--|
-8------5-------5-------5-------6-------5-------3-------3--|
-6--------------3-------3-----------------------1-------1--|
Comments