State Radio - Uncertain Chords & Tabs

 

Uncertain Chords & Tabs

State Radio Chords & Tabs

Version: 1 Type: Tab 0 ratings
1 star 2 stars 3 stars 4 stars 5 stars
comments

Uncertain Tab

   
State Radio
Flag of the Shiners
Uncertain
Tabbed by Owen Sakovics
Tuning: E A D G B E **For Live Recordings Tune to Eb**
www.tabsinonefellswoop.com

* - Tremelo pick note many times

 Am	Am	  Am	 Am	Am	  Am
-0------0---------0------0------0---------0--|
-1------1s3-3-3-3s1------1------1s3-3-3-3s1--|
-2------2s4-4-4-4s2------2------2s4-4-4-4s2--|		x2
-2------2s4-4-4-4s2------2------2s4-4-4-4s2--|
-0------0---------0------0------0---------0--|
---------------------------------------------|

 F	F G  	  F	 Am     Am	  Am
-1------1-3-3-3-3-1------0------0---------0--|
-1------1s3-3-3-3s1------1------1s3-3-3-3s1--|
-2------2s4-4-4-4s2------2------2s4-4-4-4s2--|	x4
-3------3s5-5-5-5s3------2------2s4-4-4-4s2--|
-3------3s5-5-5-5s3------0------0---------0--|
-1------1s5-5-5-5s3--------------------------|

 F	F	  Am	  Am	  D
-1------1s3-3-3-3-1-------0-------2--|
-1------1s3-3-3-3s1-------1-------3--|
-2------2s4-4-4-4s2-------2-------2--|	x1
-3------3s5-5-4-5s3-------2-------0--|
-3------3s5-5-5-5-3-------0----------|
-1------1s3-3-3-3-1------------2-----|

 Am	F	C	G
-0------1-------0-------3--|
-1------1-------1-------3--|
-2------2-------0-------0--|	x4
-2------3-------2-------0--|
-0------3-------3-------2--|
--------1---------------3--|

LEAD FILL:
--------------------------|
-12*-13*-15*-13*-12*-10*--|
--------------------------|	x1
--------------------------|
--------------------------|
--------------------------|

 F	F G  	  F	 Am     Am	  Am
-1------1-3-3-3-3-1------0------0---------0--|
-1------1s3-3-3-3s1------1------1s3-3-3-3s1--|
-2------2s4-4-4-4s2------2------2s4-4-4-4s2--|	x1
-3------3s5-5-5-5s3------2------2s4-4-4-4s2--|
-3------3s5-5-5-5s3------0------0---------0--|
-1------1s5-5-5-5s3--------------------------|

 F	F	  Am	  Am	  D
-1------1s3-3-3-3-1-------0-------2--|
-1------1s3-3-3-3s1-------1-------3--|
-2------2s4-4-4-4s2-------2-------2--|	x1
-3------3s5-5-4-5s3-------2-------0--|
-3------3s5-5-5-5-3-------0----------|
-1------1s3-3-3-3-1------------2-----|

 Am	F	C	G
-0------1-------0-------3--|
-1------1-------1-------3--|
-2------2-------0-------0--|	x4
-2------3-------2-------0--|
-0------3-------3-------2--|
--------1---------------3--|

 F	Dm	Am	G
-1------1-------0-------3--|
-1------3-------1-------3--|
-2------2-------2-------0--|	x2
-3------0-------2-------0--|
-3--------------0-------2--|
-1----------------------3--|
[ Tab from: http://www.guitartabs.cc/tabs/s/state_radio/uncertain_tab.html ]
 F	Dm	C	G	F	Dm	C	E	Am
-1------1-------0-------3-------1-------1-------0-------0-------0--|
-1------3-------1-------3-------1-------3-------1-------0-------1--|
-2------2-------0-------0-------2-------2-------0-------1-------2--|	x1
-3------0-------2-------0-------3-------0-------2-------2-------2--|
-3--------------3-------2-------3---------------3-------2-------0--|
-1----------------------3-------1-----------------------0----------|

 Dm	Gm	A	Dm	Gm	A
-1------3-------0-------1-------3-------0--|
-3------3-------2-------3-------3-------2--|
-2------3-------2-------2-------3-------2--|	x1
-0------5-------2-------0-------5-------2--|
--------5-------0---------------5-------0--|
--------3-----------------------3----------|

 Bb	Dm	Bb	Dm	Bb	Dm	Bb	Dm
-1------1-------1-------1-------1-------1-------1-------1-------|
-3------3-------3-------3-------3-------3-------3-------3-------|
-3------2-------3-------2-------3-------2-------3-------2-------|    x1
-3------0-------3-------0-------3-------0-------3-------0-------|
-1--------------1---------------1---------------1---------------|
---------------0------------------------------------------------|

 Am   	 Am	 Am	 Am	 Am	 Am	 Am	 Am	 Am	 F#5
-0-------0-------0-------0-------0-------0-------0-------0-------0----------|
-1-------1-------1-------1-------1-------1-------1-------1-------1----------|
-2-------2-------2-------2-------2-------2-------2-------2-------2----------|	x1
-2-------2-------2-------2-3-2-0-2-------2-------2-------2-------2-------4--|
-0-------0-3-2---0-------0-------0-------0-3-2---0-------0-------0-------4--|
-----2---------3-----2---------------2---------3-----2-------2-------2---2--|

 Am	F	C	G
-0------1-------0-------3--|
-1------1-------1-------3--|
-2------2-------0-------0--|	x4
-2------3-------2-------0--|
-0------3-------3-------2--|
--------1---------------3--|

 F	Dm	Am	G
-1------1-------0-------3--|
-1------3-------1-------3--|
-2------2-------2-------0--|	x2
-3------0-------2-------0--|
-3--------------0-------2--|
-1----------------------3--|

 F	Dm	C	G	F	Dm	C	E
-1------1-------0-------3-------1-------1-------0-------0--|
-1------3-------1-------3-------1-------3-------1-------0--|
-2------2-------0-------0-------2-------2-------0-------1--|	x1
-3------0-------2-------0-------3-------0-------2-------2--|
-3--------------3-------2-------3---------------3-------2--|
-1----------------------3-------1-----------------------0--|

LEAD OUTRO:
--------------------------------------|
-------------------8*-10*-12*-13*-----|
-10*-9*-10*-9*-10*-----------------9--|	x1
--------------------------------------|
--------------------------------------|
--------------------------------------|
Comments