State Radio - Uncertain Chords & Tabs

 

Uncertain Chords & Tabs

State Radio Chords & Tabs

Version: 1 Type: Bass Tab 0 ratings
1 star 2 stars 3 stars 4 stars 5 stars
comments

Uncertain Bass Tab

State Radio
Flag of the Shiners
Uncertain
Tabbed by Owen Sakovics
BASS: E A D G **For Live Recordings Tune to Eb**
www.tabsinonefellswoop.com

----------------------------------------|
----------------------------------------|	x2
---------------------0-0--0-0--0-0-2-0--|
-1-1--1-1--1-1-3-1-0--------------------|

-----------------------------------------------|
-----------------------------------------------|    x2
-----------0-2-3-3-2---0-0--0-0--0-0-2-0-------|
-1-1--1-1------------3-------------------------|

-------------------------------------|
-------------------------------------|	x1
------------------0-0--0-0--0-0-2-0--|
-1-1--1-1--1-1-3---------------------|

--------------------------------------------------------------------|
------------------------------------------0------0------0-----------|	x1
------------------0-0--0-0--0-0-0-0-0-------------------------------|
-1-1--1-1--1-1-3-----------------------2-----2-2----2-2----2-2-2-2--|

----------------------------------------------|
-------3-3------------------3-3---------------|	x1
-0--0-------3-----0h2p0--0-------3-----0h2p0--|
---------------3--------------------3---------|

------------------------------------|
----3-3------------------3-3--------|	x1
-0-------3-----0h2p0--0-------3-----|
------------3--------------------3--|

------------------------------------------|
------------------------------------------|	x1
-----------0-2-3-3-2---0-0--0-0--0-0-2-0--|
-1-1--1-1------------3--------------------|

-------------------------------------|
-------------------------------------|	x2
------------------0-0--0-0--0-0-2-0--|
-1-1--1-1--1-1-3---------------------|

-----------------------------------------------------------------------|
---------------------------------------------0------0------0-----------|	x1
-----------0h2h3-2-0---0-0--0-0--0-0-2-0-------------------------------|
-1-1--1-1------------3--------------------2-----2-2----2-2----2-2-2-2--|

----------------------------------------------|
-------3-3------------------3-3---------------|	x1
-0--0-------3-----0h2p0--0-------3-----0h2p0--|
---------------3--------------------3---------|
[ Tab from: http://www.guitartabs.cc/tabs/s/state_radio/uncertain_btab.html ]
------------------------------------|
----3-3------------------3-3--------|	x1
-0-------3-----0h2p0--0-------3-----|
------------3--------------------3--|

------------7--7-7--7------------------------|
-----------------------7--7-7--7--5--5-5--5--|	x2
-8--8-8--8-----------------------------------|
---------------------------------------------|

------------7--7-7--7--5--5-5--5-------------|
----------------------------------5--5-5--5--|	x1
-8--8-8--8-----------------------------------|
---------------------------------------------|

------------7--7-7--7--5--5-5--5----------------|
----------------------------------6--6-6--6--7--|	x1
-8--8-8--8--------------------------------------|
------------------------------------------------|

**GUITAR & DRUMS**

-----------------------------------------------------------------|
-------------------------3-2-0-----------------------------------|	x1
-0-----0--3-2---0-----0--------0-----0--3-2----0-----0-----0-----|
----2---------3----2--------------2---------3-----2-----2-----2--|

----------------------------------------------|
-------3-3------------------3-3---------------|	x1
-0--0-------3-----0h2p0--0-------3-----0h2p0--|
---------------3--------------------3---------|

------------------------------------|
----3-3------------------3-3--------|	x1
-0-------3-----0h2p0--0-------3-----|
------------3--------------------3--|

------------7--7-7--7------------------------|
-----------------------7--7-7--7--5--5-5--5--|	x2
-8--8-8--8-----------------------------------|
---------------------------------------------|

------------7--7-7--7--5--5-5--5-------------|
----------------------------------5--5-5--5--|	x1
-8--8-8--8-----------------------------------|
---------------------------------------------|

------------7--7-7--7--5--5-5--5-------------|
----------------------------------6--6-6--6--|	x1
-8--8-8--8-----------------------------------|
---------------------------------------------|

----------------------------------------|
----------------------------------------|	x2
---------------------0-0--0-0--0-0-2-0--|
-1-1--1-1--1-1-3-1-0--------------------|

------------------------------------------|
------------------------------------------|	x1
-----------0h2h3-2-0---0-0--0-0--0-0-2-0--|
-1-1--1-1------------3--------------------|

----------------------|
----------------------|	x1
-------------------0--|
-1-1--1-1--1-1--3-----|
Comments