State Radio - State Inspector Chords & Tabs

 

State Inspector Chords & Tabs

State Radio Chords & Tabs

Version: 1 Type: Tab 0 ratings
1 star 2 stars 3 stars 4 stars 5 stars
comments

State Inspector Tab

   
State Radio
Flag of the Shiners
State Inspector
Tabbed by Owen Sakovics
Tuning: E A D G B E **For Live Recordings Tune to Eb**
www.tabsinonefellswoop.com

 Bb	Cm	Bb	Ab  Eb	Fm	Cm	Ab	Bb
-6------3-------6-------4---3---1-------3-------4-------6--|
-6------4-------6-------4---4---1-------4-------4-------6--|
-7------5-------7-------5---3---1-------5-------5-------7--|	x2
-8------6-------8-------6---5---3-------5-------6-------8--|
-8------4-------8-------6---6---3-------3-------6-------8--|
-6--------------6-------4---3---1---------------4-------6--|

 Cm	Bb	Ab  Eb	Fm	Cm	Ab	Bb
-3------6-------4---3---1-------3-------4-------6--|
-4------6-------4---4---1-------4-------4-------6--|
-5------7-------5---3---1-------5-------5-------7--|	x1
-5------8-------6---5---3-------5-------6-------8--|
-4------8-------6---6---3-------3-------6-------8--|
--------6-------4---3---1---------------4-------6--|

 Bb	Cm	Bb	Ab  Eb	Fm	Cm	Ab	Bb
-6------3-------6-------4---3---1-------3-------4-------6--|
-6------4-------6-------4---4---1-------4-------4-------6--|
-7------5-------7-------5---3---1-------5-------5-------7--|	x1
-8------5-------8-------6---5---3-------5-------6-------8--|
-8------3-------8-------6---6---3-------3-------6-------8--|
-6--------------6-------4---3---1---------------4-------6--|

 Cm	Eb	Bb	Cm	Eb	Bb
-8------6-------6-------8-------6-------6--|
-8------8-------6-------8-------8-------6--|
-8------8-------7-------8-------8-------7--|	x1
-10-----8-------8-------10------8-------8--|
-10-----6-------8-------10------6-------8--|
-8--------------6-------8---------------6--|

 Cm	Eb	Eb	Bb
-8------6-------6-------6--|
-8------8-------8-------6--|
-8------8-------8-------7--|	x1
-10-----8-------8-------8--|
-10-----6-------6-------8--|
-8----------------------6--|

 Cm	Bb	Ab  Eb	Fm	Cm	Ab	Bb
-3------6-------4---3---1-------3-------4-------6--|
-4------6-------4---4---1-------4-------4-------6--|
-5------7-------5---3---1-------5-------5-------7--|	x1
-5------8-------6---5---3-------5-------6-------8--|
-3------8-------6---6---3-------3-------6-------8--|
--------6-------4---3---1---------------4-------6--|
[ Tab from: http://www.guitartabs.cc/tabs/s/state_radio/state_inspector_tab.html ]
 Bb	Cm	Bb	Ab  Eb	Fm	Cm	Ab	Bb
-6------3-------6-------4---3---1-------3-------4-------6--|
-6------4-------6-------4---4---1-------4-------4-------6--|
-7------5-------7-------5---3---1-------5-------5-------7--|	x2
-8------5-------8-------6---5---3-------5-------6-------8--|
-8------3-------8-------6---6---3-------3-------6-------8--|
-6--------------6-------4---3---1---------------4-------6--|


 Cm	Bb	Ab  Eb	Fm	Cm	Ab	Bb
-3------6-------4---3---1-------3-------4-------6--|
-4------6-------4---4---1-------4-------4-------6--|
-5------7-------5---3---1-------5-------5-------7--|	x1
-5------8-------6---5---3-------5-------6-------8--|
-3------8-------6---6---3-------3-------6-------8--|
--------6-------4---3---1---------------4-------6--|

 Bb	Cm	Bb	Ab  Eb	Fm	Cm	Ab	Bb
-6------3-------6-------4---3---1-------3-------4-------6--|
-6------4-------6-------4---4---1-------4-------4-------6--|
-7------5-------7-------5---3---1-------5-------5-------7--|	x1
-8------5-------8-------6---5---3-------5-------6-------8--|
-8------3-------8-------6---6---3-------3-------6-------8--|
-6--------------6-------4---3---1---------------4-------6--|

 Cm	Eb	Bb	Cm	Eb	Bb
-8------6-------6-------8-------6-------6--|
-8------8-------6-------8-------8-------6--|
-8------8-------7-------8-------8-------7--|	x1
-10-----8-------8-------10------8-------8--|
-10-----6-------8-------10------6-------8--|
-8--------------6-------8---------------6--|

 Cm	Eb	Eb	Bb
-8------6-------6-------6--|
-8------8-------8-------6--|
-8------8-------8-------7--|	x1
-10-----8-------8-------8--|
-10-----6-------6-------8--|
-8----------------------6--|


 Cm	Bb	Ab  Eb	Fm	Cm	Ab	Bb
-3------6-------4---3---1-------3-------4--------6--|
-4------6-------4---4---1-------4-------4--------6--|
-5------7-------5---3---1-------5-------5--------7--|	x1
-5------8-------6---5---3-------5-------6--------8--|
-3------8-------6---6---3-------3-------6--------8--|
--------6-------4---3---1---------------4--------6--|

 Bb	Cm	Bb	Ab  Eb	Fm	Cm	Ab	Bb	Cm
-6------3-------6-------4---3---1-------3-------4-------6-------8---|
-6------4-------6-------4---4---1-------4-------4-------6-------8---|
-7------5-------7-------5---3---1-------5-------5-------7-------8---|	x1
-8------5-------8-------6---5---3-------5-------6-------8-------10--|
-8------3-------8-------6---6---3-------3-------6-------8-------10--|
-6--------------6-------4---3---1---------------4-------6-------8---|
Comments