State Radio - Rushian Chords & Tabs

 

Rushian Chords & Tabs

State Radio Chords & Tabs

Version: 1 Type: Tab 0 ratings
1 star 2 stars 3 stars 4 stars 5 stars
comments

Rushian Tab

   
State Radio
State Radio Promo CD
Rushian
Tabbed by Owen Sakovics
Tuning: Eb Ab Db Gb Bb Eb
www.tabsinonefellswoop.com

 Dm	Bb  Dm	C
-5------6---5---3--|
-6------6---6---5--|
-7------7---7---5--|	x4
-7------8---7---5--|
-5------8---5---3--|
--------6----------|

 Bb	C	Dm	C
-1------3-------5-------3--|
-3------5-------6-------5--|
-3------5-------7-------5--|	x2
-3------5-------7-------5--|
-1------3-------5-------3--|
---------------------------|

 Dm	Bb  Dm	C
-5------6---5---3--|
-6------6---6---5--|
-7------7---7---5--|	x4
-7------8---7---5--|
-5------8---5---3--|
--------6----------|

 Bb	C	Dm	C
-1------3-------5-------3--|
-3------5-------6-------5--|
-3------5-------7-------5--|	x1
-3------5-------7-------5--|
-1------3-------5-------3--|
---------------------------|

 F	Dm	Bb	C	F	Dm	Bb	C
-1------5-------6-------8-------1-------5-------6-------8---|
-1------6-------6-------8-------1-------6-------6-------8---|
-2------7-------7-------9-------2-------7-------7-------9---|	x1
-3------7-------8-------10------3-------7-------8-------10--|
-3------5-------8-------10------3-------5-------8-------10--|
-1--------------6-------8-------1---------------6-------8---|

 F	A	Bb	C	F	A	Bb	C
-1------5-------6-------8-------1-------5-------6-------8---|
-1------5-------6-------8-------1-------5-------6-------8---|
-2------6-------7-------9-------2-------6-------7-------9---|	x1
-3------7-------8-------10------3-------7-------8-------10--|
-3------7-------8-------10------3-------7-------8-------10--|
-1------5-------6-------8-------1-------5-------6-------8---|

 Dm	Bb  Dm	C
-5------6---5---3--|
-6------6---6---5--|
-7------7---7---5--|	x4
-7------8---7---5--|
-5------8---5---3--|
--------6----------|
[ Tab from: http://www.guitartabs.cc/tabs/s/state_radio/rushian_tab.html ]
 Bb	Dm	Gm	Dm		Bb	Dm
-1------5-------3-------5---------------6-------5--------------------|
-3------6-------3-------6---------------6-------6--------------------|
-3------7-------3-------7---------------7-------7--------------------|	x1
-3------7-------5-------7---------------7-------7--------------------|
-1------5-------5-------5-------5-------8-------5--8-7---7-7h8--7-5--|
----------------3-----------------8-6-5-6----------------------------|

 Dm	C	C
-5------3-------3--|
-6------5-------5--|
-7------5-------5--|	x1
-7------5-------5--|
-5------3-------3--|
-------------------|

 F	Dm	Bb	C	F	Dm	Bb	C
-1------5-------6-------8-------1-------5-------6-------8---|
-1------6-------6-------8-------1-------6-------6-------8---|
-2------7-------7-------9-------2-------7-------7-------9---|	x1
-3------7-------8-------10------3-------7-------8-------10--|
-3------5-------8-------10------3-------5-------8-------10--|
-1--------------6-------8-------1---------------6-------8---|

 F	A	Bb	C	F	A	Bb	C
-1------5-------6-------8-------1-------5-------6-------8---|
-1------5-------6-------8-------1-------5-------6-------8---|
-2------6-------7-------9-------2-------6-------7-------9---|	x1
-3------7-------8-------10------3-------7-------8-------10--|
-3------7-------8-------10------3-------7-------8-------10--|
-1------5-------6-------8-------1-------5-------6-------8---|

 F	Dm	Bb	C	F	Dm	Bb	C
-1------5-------6-------8-------1-------5-------6-------8---|
-1------6-------6-------8-------1-------6-------6-------8---|
-2------7-------7-------9-------2-------7-------7-------9---|	x1
-3------7-------8-------10------3-------7-------8-------10--|
-3------5-------8-------10------3-------5-------8-------10--|
-1--------------6-------8-------1---------------6-------8---|

 F	A	Bb	C	F	A	Bb	C	Bb  A   F
-1------5-------6-------8-------1-------5-------6-------8------------------|
-1------5-------6-------8-------1-------5-------6-------8------------------|
-2------6-------7-------9-------2-------6-------7-------9------------------|	x1
-3------7-------8-------10------3-------7-------8-------10------8---7---3--|
-3------7-------8-------10------3-------7-------8-------10------8---7---3--|
-1------5-------6-------8-------1-------5-------6-------8-------6---5---1--|
Comments