State Radio - Mr Larkin Live Chords & Tabs

 

Mr Larkin Live Chords & Tabs

State Radio Chords & Tabs

Version: 1 Type: Tab 0 ratings
1 star 2 stars 3 stars 4 stars 5 stars
comments

Mr Larkin Live Tab

   
State Radio
Peace Between Nations
Mr. Larkin (Live)
Tabbed by Owen Sakovics
Tuning: Eb Ab Db Gb Bb Eb
www.tabsinonefellswoop.com

 F	C 	   Dm	  Am	  F	 C	    Am	   Am
-1------0--0-0-0---1------0---0-0-1------0--0-0-0---0------0---0--|
-1------1--1-1-1---3------1---1-0-1------1--1-1-1---1------1---0--|
-2------0--0-0-0---2------2---2-0-2------0--0-0-0---2------2---0--|	x4
-3------2--2-0-2s3-0------2---2-0-3------2--2-0-2s3-2------2---0--|
-3------3--3-0-3s4--------0---0-0-3------3--3-0-3s4-0------0---0--|
-1--------------------------------1-------------------------------|

 F	Dm	Bb	C
-1------1-------1-------0--|
-1------3-------3-------1--|
-2------2-------3-------0--|	x4
-3------0-------3-------2--|
-3--------------1-------3--|
-1-------------------------|

 F	C 	   Dm	  Am	  F	 C	    Am	   Am
-1------0--0-0-0---1------0---0-0-1------0--0-0-0---0------0---0--|
-1------1--1-1-1---3------1---1-0-1------1--1-1-1---1------1---0--|
-2------0--0-0-0---2------2---2-0-2------0--0-0-0---2------2---0--|	x2
-3------2--2-0-2s3-0------2---2-0-3------2--2-0-2s3-2------2---0--|
-3------3--3-0-3s4--------0---0-0-3------3--3-0-3s4-0------0---0--|
-1--------------------------------1-------------------------------|

 F	C 	   Dm	  Am	  F	 C	    Am	   G
-1------0--0-0-0---1------0---0-0-1------0--0-0-0---0------3---|
-1------1--1-1-1---3------1---1-0-1------1--1-1-1---1------3---|
-2------0--0-0-0---2------2---2-0-2------0--0-0-0---2------0---|	x1
-3------2--2-0-2s3-0------2---2-0-3------2--2-0-2s3-2------0---|
-3------3--3-0-3s4--------0---0-0-3------3--3-0-3s4-0------2---|
-1--------------------------------1------------------------3---|

 F	Dm	Bb	C
-1------1-------1-------0--|
-1------3-------3-------1--|
-2------2-------3-------0--|	x3
-3------0-------3-------2--|
-3--------------1-------3--|
-1-------------------------|

 F	Dm	Bb	C	A
-1------1-------1-------0-------0---------0----0--|
-1------3-------3-------1-------2--2h3-3--3p2--2--|
-2------2-------3-------0-------2--2---2--2----2--|	x1
-3------0-------3-------2-------2--2---2--2----2--|
-3--------------1-------3-------0---------0----0--|
-1------------------------------------------------|
[ Tab from: http://www.guitartabs.cc/tabs/s/state_radio/mr_larkin_live_tab.html ]
 Dm	Bb	F	C	   Am	   F	  G
-1------1-------1-------0--0-0-0---0-------1------3--|
-3------3-------1-------1--1-1-1---1-------1------3--|
-2------3-------2-------0--0-0-0---2-------2------4--|	x1
-0------3-------3-------2--2-0-2s3-2-------3------5--|
--------1-------3-------3--3-0-3s4-0-------3------5--|
----------------1--------------------------1------3--|

 Gm	Bb	F   	C	   Dm	   Bb
-3------1-------1-------0--0-0-0---1-------1--|
-3------3-------1-------1--1-1-1---3-------3--|
-3------3-------2-------0--0-0-0---2-------3--|	x1
-5------3-------3-------2--2-0-2s3-0-------3--|
-5------1-------3-------3--3-0-3s4---------1--|
-3--------------1-----------------------------|

 F	Dm	Bb	C
-1------1-------1-------0--|
-1------3-------3-------1--|
-2------2-------3-------0--|	x3
-3------0-------3-------2--|
-3--------------1-------3--|
-1-------------------------|

 F	Dm	Bb	C	A
-1------1-------1-------0-------0-------0---0--|
-1------3-------3-------1-------2-------3---2--|
-2------2-------3-------0-------2-------2---2--|	x1
-3------0-------3-------2-------2-------2---2--|
-3--------------1-------3-------0-------0---0--|
-1---------------------------------------------|

 Dm	Bb	F	C	   Am	   F	  Am
-1------1-------1-------0--0-0-0---0-------1------0--|
-3------3-------1-------1--1-1-1---1-------1------1--|
-2------3-------2-------0--0-0-0---2-------2------2--|	x1
-0------3-------3-------2--2-0-2s3-2-------3------2--|
--------1-------3-------3--3-0-3s4-0-------3------0--|
----------------1--------------------------1---------|

 Gm	Bb	F   	C	   Dm	   Bb
-3------1-------1-------0--0-0-0---1-------1--|
-3------3-------1-------1--1-1-1---3-------3--|
-3------3-------2-------0--0-0-0---2-------3--|	x1
-5------3-------3-------2--2-0-2s3-0-------3--|
-5------1-------3-------3--3-0-3s4---------1--|
-3--------------1-----------------------------|

 F	Dm	Bb	C
-1------1-------1-------0--|
-1------3-------3-------1--|
-2------2-------3-------0--|	x4
-3------0-------3-------2--|
-3--------------1-------3--|
-1-------------------------|

 F	C 	   Dm	  Am	  F	 C	    Am	   Am
-1------0--0-0-0---1------0---0-0-1------0--0-0-0---0------0---0--|
-1------1--1-1-1---3------1---1-0-1------1--1-1-1---1------1---0--|
-2------0--0-0-0---2------2---2-0-2------0--0-0-0---2------2---0--|	x1
-3------2--2-0-2s3-0------2---2-0-3------2--2-0-2s3-2------2---0--|
-3------3--3-0-3s4--------0---0-0-3------3--3-0-3s4-0------0---0--|
-1--------------------------------1-------------------------------|

 F	C 	   Dm	  Am	  F	 C	    Dm
-1------0--0-0-0---1------0---0-0-1------0--0-0-0---1--|
-1------1--1-1-1---3------1---1-0-1------1--1-1-1---3--|
-2------0--0-0-0---2------2---2-0-2------0--0-0-0---2--|	x1
-3------2--2-0-2s3-0------2---2-0-3------2--2-0-2s3-0--|
-3------3--3-0-3s4--------0---0-0-3------3--3-0-3s4----|
-1--------------------------------1--------------------|
Comments