State Radio - Mountain Chords & Tabs

 

Mountain Chords & Tabs

State Radio Chords & Tabs

Version: 1 Type: Tab 0 ratings
1 star 2 stars 3 stars 4 stars 5 stars
comments

Mountain Tab

   
State Radio
Flag of the Shiners
Mountain
Tabbed by Owen Sakovics
Tuning: E A D G B E **For Live Recordings Tune to Eb**
www.tabsinonefellswoop.com

----------------------------|
----------------------------|
----------------------------|	x3
-----2h4--------------------|
-----------2---2---2h3p2----|
-0-2-----5---5---5-------5--|

   F#m       F#m      A     F#m	Bm	        E       A   F#m Bm	  E         D     A
---2--x-x-x--2--x-x---------2---2-2-2-2-2-2-2---0-0-0-------2---2-2-2-2---0-0-0-0---2-2---0-0-----------|
---2--x-x-x--2--x-x---2-2---2---2h3-3-3-3-3-3---0-0-0---2---2---2h3-3-3---0-0-0-0---3-3---2-2-----------|

x1
-4-4--x-x-x--4--x-x---2-2---4---2h4-4-4-4-4-4---2-2-2---2---4---2h4-4-4---2-2-2-2---0-0---2-2--------4--|
-4-4--x-x-x--4--x-x---------4---2-2-2-2-2-2-2---2-2-2-------4---2-2-2-2---2-2-2-2---------0-0-----------|
-0-2--x-x-x--2--x-x---------2-------------------0-0-0-------2-------------0-0-0-0-----------------------|

   F#m       F#m      A     F#m	Bm	        E       A   F#m Bm	  E         D     A
---2--x-x-x--2--x-x---------2---2-2-2-2-2-2-2---0-0-0-------2---2-2-2-2---0-0-0-0---2-2---0-0--|
---2--x-x-x--2--x-x---2-2---2---2h3-3-3-3-3-3---0-0-0---2---2---2h3-3-3---0-0-0-0---3-3---2-2--|
---2--x-x-x--2--x-x---2-2---2---2h4-4-4-4-4-4---1-1-1---2---2---2h4-4-4---1-1-1-1---2-2---2-2--|	x1
-4-4--x-x-x--4--x-x---2-2---4---2h4-4-4-4-4-4---2-2-2---2---4---2h4-4-4---2-2-2-2---0-0---2-2--|
-4-4--x-x-x--4--x-x---------4---2-2-2-2-2-2-2---2-2-2-------4---2-2-2-2---2-2-2-2---------0-0--|
-0-2--x-x-x--2--x-x---------2-------------------0-0-0-------2-------------0-0-0-0--------------|

 F#m	Bm	F#m	Bm
-2------2-------2-------2--|
-2------3-------2-------3--|
-2------4-------2-------4--|	x1
-4------4-------4-------4--|
-4------2-------4-------2--|
-2--------------2----------|

 A	E	D	A
-0------0-------2-------0--|
-2------0-------3-------2--|
-2------1-------2-------2--|	x2
-2------2-------0-------2--|
-0------2---------------0--|
--------0------------------|

 Bm	G#	A
-2------4-------5--|
-3------4-------5--|
-4------5-------6--|	x1
-4------6-------7--|
-2------6-------7--|
--------4-------5--|

 C#m	E	A	A	C#m	E	A	A
-4------7-------5-------5-------4-------7-------5-------5--|
-5------9-------5-------5-------5-------9-------5-------5--|
-6------9-------6-------6-------6-------9-------6-------5--|	x1
-6------9-------7-------7-------6-------9-------7-------7--|
-4------7-------7-------7-------4-------7-------7-------7--|
----------------5-------5-----------------------5-------5--|

 C#m	E	A	A	C#m	E	A	Asus4
-4------7-------5-------5-------4-------7-------5-------5----|
-5------9-------5-------5-------5-------9-------5-------5----|
-6------9-------6-------6-------6-------9-------6-------7----|	x1
-6------9-------7-------7-------6-------9-------7-------5----|
-4------7-------7-------7-------4-------7-------7-------7----|
----------------5-------5-----------------------5-------5----|

 F#m	    D	    F#m	        D       Bm      Bm      D
-2----------2-------2-----------2-------2-------2-------2--|
-2----------3-------2-----------3-------3-------3-------3--|
-2----2h4p2-2-------2----2h4p2--2-------4-------4-------2--|	x2
-4-2h4------0-------4-2h4-------0-------4-------4-------0--|
-4------------------4-------------------2-------2----------|
-2------------------2--------------------------------------|

----------------------------|
----------------------------|
----------------------------|	x3
-----2h4--------------------|
-----------2---2---2h3p2----|
-0-2-----5---5---5-------5--|
[ Tab from: http://www.guitartabs.cc/tabs/s/state_radio/mountain_tab.html ]
   F#m       F#m      A     F#m	Bm	        E       A   F#m Bm	  E         D     A
---2--x-x-x--2--x-x---------2---2-2-2-2-2-2-2---0-0-0-------2---2-2-2-2---0-0-0-0---2-2---0-0-----------|
---2--x-x-x--2--x-x---2-2---2---2h3-3-3-3-3-3---0-0-0---2---2---2h3-3-3---0-0-0-0---3-3---2-2-----------|

x1
-4-4--x-x-x--4--x-x---2-2---4---2h4-4-4-4-4-4---2-2-2---2---4---2h4-4-4---2-2-2-2---0-0---2-2--------4--|
-4-4--x-x-x--4--x-x---------4---2-2-2-2-2-2-2---2-2-2-------4---2-2-2-2---2-2-2-2---------0-0-----------|
-0-2--x-x-x--2--x-x---------2-------------------0-0-0-------2-------------0-0-0-0-----------------------|

   F#m       F#m      A     F#m	Bm	        E       A   F#m Bm	  E         D     A
---2--x-x-x--2--x-x---------2---2-2-2-2-2-2-2---0-0-0-------2---2-2-2-2---0-0-0-0---2-2---0-0--|
---2--x-x-x--2--x-x---2-2---2---2h3-3-3-3-3-3---0-0-0---2---2---2h3-3-3---0-0-0-0---3-3---2-2--|
---2--x-x-x--2--x-x---2-2---2---2h4-4-4-4-4-4---1-1-1---2---2---2h4-4-4---1-1-1-1---2-2---2-2--|	x1
-4-4--x-x-x--4--x-x---2-2---4---2h4-4-4-4-4-4---2-2-2---2---4---2h4-4-4---2-2-2-2---0-0---2-2--|
-4-4--x-x-x--4--x-x---------4---2-2-2-2-2-2-2---2-2-2-------4---2-2-2-2---2-2-2-2---------0-0--|
-0-2--x-x-x--2--x-x---------2-------------------0-0-0-------2-------------0-0-0-0--------------|

 F#m	F#m	A	E
-2------2-------0-------0--|
-2------2-------2-------0--|
-2------2-------2-------1--|	x2
-4------4-------2-------2--|
-4------4-------0-------2--|
-2------2---------------0--|

 Bm	F#m	G#	A
-2------2-------4-------5--|
-3------2-------4-------5--|
-4------2-------5-------6--|	x1
-4------4-------6-------7--|
-2------4-------6-------7--|
--------2-------4-------5--|

 C#m	E	A	A	C#m	E	A	A
-4------7-------5-------5-------4-------7-------5-------5--|
-5------9-------5-------5-------5-------9-------5-------5--|
-6------9-------6-------6-------6-------9-------6-------5--|	x1
-6------9-------7-------7-------6-------9-------7-------7--|
-4------7-------7-------7-------4-------7-------7-------7--|
----------------5-------5-----------------------5-------5--|

 C#m	E	A	A	C#m	E	A	Asus4
-4------7-------5-------5-------4-------7-------5-------5----|
-5------9-------5-------5-------5-------9-------5-------5----|
-6------9-------6-------6-------6-------9-------6-------7----|	x1
-6------9-------7-------7-------6-------9-------7-------5----|
-4------7-------7-------7-------4-------7-------7-------7----|
----------------5-------5-----------------------5-------5----|

 F#m	    D	    F#m	        D       Bm      Bm      D
-2----------2-------2-----------2-------2-------2-------2--|
-2----------3-------2-----------3-------3-------3-------3--|
-2----2h4p2-2-------2----2h4p2--2-------4-------4-------2--|	x2
-4-2h4------0-------4-2h4-------0-------4-------4-------0--|
-4------------------4-------------------2-------2----------|
-2------------------2--------------------------------------|

----------------------------|
----------------------------|
----------------------------|	x2
-----2h4--------------------|
-----------2---2---2h3p2----|
-0-2-----5---5---5-------5--|

---------------------------|
---------------------------|
---------------------------|	x1
-----2h4-------------------|
-----------2-4-5-4-2-------|
-0-2-----5-----------5-----|

 F#m	   Bm	     A   E   F#m
-2---------2---------0---0---2----------|
-2---------3---------2---0---2----------|
-2---------4---------2---1---2----------|	x4
-4---------4---------2---2---4----------|
-4-5-4-2-0-2-5-4-2-0-0---2---4-5-4-2-0--|
-2-----------------------0---2----------|


 F#m	   Bm	     A   E   F#m    F#m	   Bm	  A   E   F#m
-2---------2---------0---0---2------2------2------0---0---2--|
-2---------3---------2---0---2------2------3------2---0---2--|
-2---------4---------2---1---2------2------4------2---1---2--|	x1
-4---------4---------2---2---4------4------4------2---2---4--|
-4-5-4-2-0-2-5-4-2-0-0---2---4------4------2------0---2---2--|
-2-----------------------0---2------2-----------------0---2--|
Comments