State Radio - Legacy Of Margaret Brown Chords & Tabs

 

Legacy Of Margaret Brown Chords & Tabs

State Radio Chords & Tabs

Version: 1 Type: Bass Tab 0 ratings
1 star 2 stars 3 stars 4 stars 5 stars
comments

Legacy Of Margaret Brown Bass Tab

State Radio
Flag of the Shiners
The Legacy of Margaret Brown
Tabbed by Owen Sakovics
BASS: E A D G **For Live Recordings Tune to Eb**
www.tabsinonefellswoop.com

------------------------------------------|
------------------------------------------|	x1
-6---6-6---6-6---6-6---6-6-6--6-6-6--6-6--|
------------------------------------------|

----------------------------------|
-------4-6------------------------|	x1
-4-6---------4-6---4-6--4-6--4-6--|
----------------------------------|

---------------------------------------------------------3-3--|
-------4-6-------------------------6--------------------------|	x1
-4-6---------4-6---4-6-6---6-6-6-------6-6---6-6---4-6--------|
--------------------------------------------------------------|

-----------------------------------------------------------|
---------------------4-----4--------------6h8-6---6h8-6h8--|	x1
-6-6-6-6-6-6-6-6-6-6---6-6----6-6-6-6-6-6-------9----------|
-----------------------------------------------------------|

-------------------------------------------|
----------------------------6-4---4h6-4h6--|	x1
------6---------6------6-6------6----------|
-4--4----4-4--4----4-4---------------------|

---------------------------------------------|
------------------7-9-8--8----------6h8-6h8--|	x1
------9--9----7-9---------------6-8----------|
-7--7------7---------------6--6--------------|
[ Tab from: http://www.guitartabs.cc/tabs/s/state_radio/legacy_of_margaret_brown_btab.html ]
-------------8--------8-----------------------|
-------------------------------6-6--6-6-6--8--|	x1
-6-6--6-6-6----6-6-6----6-6-6-----------------|
----------------------------------------------|

--------------------------------|
-4--3---------------------------|	x1
------6--4-6-4--------3-4--6----|
---------------7-6-4---------6--|

------------------------------------------|
------------------------------------------|	x1
-4-5-6-6--4------4-6-4-------------4-6----|
------------6-6--------7-6-4--6-7------6--|

----------------------8-8----8-8----|
------------------------------------|	x1
-6--6-6--4-6--4-6--6------6------6--|
------------------------------------|

-8-8-----------------------------------------------|
--------------------------------4------------------|	x1
-----6-6-6--4------4-6-6---4-6----4------4-6--4-6--|
--------------6-6-------------------6-6------------|

-----------------------------------------------------------|
------4-------------------------4--------------------------|	x1
-4-6----4------4-5-6--4-6--4-6----6-4------6------4-5-6-6--|
----------6--4------------------------6--4----3-6----------|

------------------------------------------------------|
-----------6b7r6-4-6-4-------------------------4-4h6--|	x1
-4----4-6--------------6-4-6--4---4-------6--6--------|
---6----------------------------6---6-4-2-------------|

-------------------------------|
-------------------------------|	x1
-6--4------4-6--6--4--------6--|
------6--6-----------6-6--4----|
Comments