State Radio - Ill Advised Chords & Tabs

 

Ill Advised Chords & Tabs

State Radio Chords & Tabs

Version: 1 Type: Tab 0 ratings
1 star 2 stars 3 stars 4 stars 5 stars
comments

Ill Advised Tab

   
State Radio
Flag of the Shiners
Ill Advised
Tabbed by Owen Sakovics
Tuning: E A D G B E
**For Live Recordings Tune to Eb**
www.tabsinonefellswoop.com

 Cm	Bb	F	F	Cm	F	Eb	D
-3------1-------1-------1-------3-------1-------6-------5--|
-4------3-------1-------1-------4-------1-------8-------7--|
-5------3-------2-------2-------5-------2-------8-------7--|	x2
-5------3-------3-------3-------5-------3-------8-------7--|
-3------1-------3-------3-------3-------3-------6-------5--|
----------------1-------1---------------1------------------|

 Cm  Bb	 Cm	Cm  Bb  Cm	Cm  Bb	Cm	Cm  Bb  Cm      F
-3---1---3------3---1---3-------3---1---3-------3---1---3-------1--|
-4---3---4------4---3---4-------4---3---4-------4---3---4-------1--|
-5---3---5------5---3---5-------5---3---5-------5---3---5-------2--|	x1
-5---3---5------5---3---5-------5---3---5-------5---3---5-------3--|
-3---1---3------3---1---3-------3---1---3-------3---1---3-------3--|
-----------4-3------------4-3--------------4-3-------------4-3--1--|

 Cm  Bb	 Cm	Cm  Bb  Cm
-3---1---3------3---1---3-------|
-4---3---4------4---3---4-------|
-5---3---5------5---3---5-------|	x1
-5---3---5------5---3---5-------|
-3---1---3------3---1---3-------|
-----------4-3-------------4-3--|

 Cm  Bb	 Cm	Cm  Bb  Cm	Cm  Bb	Cm	Cm  Bb  Cm      F
-3---1---3------3---1---3-------3---1---3-------3---1---3-------1--|
-4---3---4------4---3---4-------4---3---4-------4---3---4-------1--|
-5---3---5------5---3---5-------5---3---5-------5---3---5-------2--|	x1
-5---3---5------5---3---5-------5---3---5-------5---3---5-------3--|
-3---1---3------3---1---3-------3---1---3-------3---1---3-------3--|
-----------4-3------------4-3--------------4-3-------------4-3--1--|

 Cm  Bb	 Cm	Cm  Bb  Cm
-3---1---3------3---1---3--|
-4---3---4------4---3---4--|
-5---3---5------5---3---5--|	x1
-5---3---5------5---3---5--|
-3---1---3------3---1---3--|
-----------4-3-------------|

 Cm	Ab	Bb	Cm	Cm	Ab	Eb	Cm	Ab      F
-3------4-------6-------3-------3-------4-------6-------3-------4-------1--|
-4------4-------6-------4-------4-------4-------8-------4-------4-------1--|
-5------5-------7-------5-------5-------5-------8-------5-------5-------2--|	x2
-5------6-------8-------5-------5-------6-------8-------5-------6-------3--|
-3------6-------8-------3-------3-------6-------6-------3-------6-------3--|
--------4-------6-----------------------4-----------------------4-------1--|
[ Tab from: http://www.guitartabs.cc/tabs/s/state_radio/ill_advised_tab.html ]
 Cm  Bb	 Cm	Cm  Bb  Cm	Cm  Bb	Cm	Cm  Bb  Cm      F	Eb	Bb
-3---1---3------3---1---3-------3---1---3-------3---1---3-------1-------6-------6--|
-4---3---4------4---3---4-------4---3---4-------4---3---4-------1-------8-------6--|
-5---3---5------5---3---5-------5---3---5-------5---3---5-------2-------8-------7--|	x1
-5---3---5------5---3---5-------5---3---5-------5---3---5-------3-------8-------8--|
-3---1---3------3---1---3-------3---1---3-------3---1---3-------3-------6-------8--|
-----------4-3------------4-3--------------4-3------------4-3---1---------------6--|

 Cm  Bb	 Cm	Cm  Bb  Cm
-3---1---3------3---1---3--|
-4---3---4------4---3---4--|
-5---3---5------5---3---5--|	x1
-5---3---5------5---3---5--|
-3---1---3------3---1---3--|
-----------4-3-------------|

 Cm	Ab	Bb	Cm	Cm	Ab	Eb	Cm	Ab      F
-3------4-------6-------3-------3-------4-------6-------3-------4-------1--|
-4------4-------6-------4-------4-------4-------8-------4-------4-------1--|
-5------5-------7-------5-------5-------5-------8-------5-------5-------2--|	x2
-5------6-------8-------5-------5-------6-------8-------5-------6-------3--|
-3------6-------8-------3-------3-------6-------6-------3-------6-------3--|
--------4-------6-----------------------4-----------------------4-------1--|

 Cm	Bb      F	Cm	F	Eb	D
-3------1-------1-------3-------1-------6-------5--|
-4------3-------1-------4-------1-------8-------7--|
-5------3-------2-------5-------2-------8-------7--|	x2
-5------3-------3-------5-------3-------8-------7--|
-3------1-------3-------3-------3-------6-------5--|
----------------1---------------1------------------|

 Cm	Ab	Cm	F	Cm	Ab	Cm	F
-3------4-------3-------1-------3-------4-------3-------1--|
-4------4-------4-------1-------4-------4-------4-------1--|
-5------5-------5-------2-------5-------5-------5-------2--|	x1
-5------6-------5-------3-------5-------6-------5-------3--|
-3------6-------3-------3-------3-------6-------3-------3--|
--------4---------------1---------------4---------------1--|

 Cm	Ab	Cm      F	Eb	Bb
-3------4-------3-------1-------6-------6--|
-4------4-------4-------1-------8-------6--|
-5------5-------5-------2-------8-------7--|	x1
-5------6-------5-------3-------8-------8--|
-3------6-------3-------3-------6-------8--|
--------4---------------1---------------6--|

 Cm  Bb	 Cm	Cm  Bb  Cm	Cm  Bb	Cm	Cm  Bb  Cm
-3---1---3------3---1---3-------3---1---3-------3---1---3--|
-4---3---4------4---3---4-------4---3---4-------4---3---4--|
-5---3---5------5---3---5-------5---3---5-------5---3---5--|	x1
-5---3---5------5---3---5-------5---3---5-------5---3---5--|
-3---1---3------3---1---3-------3---1---3-------3---1---3--|
-----------4-3------------4-3------------------------------|
Comments