State Radio - Heady Riser Chords & Tabs

 

Heady Riser Chords & Tabs

State Radio Chords & Tabs

Version: 1 Type: Tab 0 ratings
1 star 2 stars 3 stars 4 stars 5 stars
comments

Heady Riser Tab

   
State Radio
Simmer Kane
Heady Riser
Tabbed by Owen Sakovics
Tuning: Eb Ab Db Gb Bb Eb
www.tabsinonefellswoop.com

 D#	Fm
-6------8---|
-8------9---|
-8------10--|	x4
-8------10--|
-6------8---|
------------|

 Fm	D#	G#	D#
-8------6-------4-------6--|
-9------8-------4-------8--|
-10-----8-------5-------8--|	x2
-10-----8-------6-------8--|
-8------6-------6-------6--|
----------------4----------|

 Fm	A#m	D#	Fm	Fm	A#m	D#	Cm
-8------6-------6-------8-------8-------6-------6-------8---|
-9------6-------8-------9-------9-------6-------8-------8---|
-10-----6-------8-------10------10------6-------8-------8---|	x2
-10-----8-------8-------10------10------8-------8-------10--|
-8------8-------6-------8-------8-------8-------6-------10--|
--------6-------------------------------6---------------8---|

 G#	Fm	D#
-4------8-------6--|
-4------9-------8--|
-5------10------8--|	x3
-6------10------8--|
-6------8-------6--|
-4-----------------|

 Fm	A#m	D#	D#
-8------6-------6-------6--|
-9------6-------8-------8--|
-10-----6-------8-------8--|	x1
-10-----8-------8-------8--|
-8------8-------6-------6--|
--------6------------------|

 Fm	C#	Fm	Fm	Fm	C#	G#	D#
-8------9-------8-------8-------8-------8-------4-------6--|
-9------9-------9-------9-------9-------9-------4-------8--|
-10-----10------10------10------10------10------5-------8--|	x2
-10-----11------10------10------10------10------6-------8--|
-8------11------8-------8-------8-------8-------6-------6--|
--------9---------------------------------------4----------|

 D#	Fm
-6------8---|
-8------9---|
-8------10--|	x4
-8------10--|
-6------8---|
------------|
[ Tab from: http://www.guitartabs.cc/tabs/s/state_radio/heady_riser_tab.html ]
 Fm	A#m	D#	D#	Fm	A#m	G#	D#
-8------6-------6-------6-------8-------6-------4-------6--|
-9------6-------8-------8-------9-------6-------4-------8--|
-10-----6-------8-------8-------10------6-------5-------8--|	x1
-10-----8-------8-------8-------10------8-------6-------8--|
-8------8-------6-------6-------8-------8-------6-------6--|
--------6-------------------------------6-------4----------|

 Fm	A#m	D#	Fm	Fm	A#m	G#	D#
-8------6-------6-------8-------8-------6-------4-------6--|
-9------6-------8-------9-------9-------6-------4-------8--|
-10-----6-------8-------10------10------6-------5-------8--|	x1
-10-----8-------8-------10------10------8-------6-------8--|
-8------8-------6-------8-------8-------8-------6-------6--|
--------6-------------------------------6-------4----------|

 G#	Fm	D#
-4------8-------6--|
-4------9-------8--|
-5------10------8--|	x3
-6------10------8--|
-6------8-------6--|
-4-----------------|

 Fm	Fm	D#	D#
-8------8-------6-------6--|
-9------9-------8-------8--|
-10-----10------8-------8--|	x1
-10-----10------8-------8--|
-8------8-------6-------6--|
---------------------------|

 Fm	A#m	A#m	D#
-8------6-------6-------6--|
-9------6-------6-------8--|
-10-----6-------6-------8--|	x1
-10-----8-------8-------8--|
-8------8-------8-------6--|
--------6-------6----------|

 Fm	C#	Fm	Fm	Fm	C#	G#	D#
-8------9-------8-------8-------8-------8-------4-------6--|
-9------9-------9-------9-------9-------9-------4-------8--|
-10-----10------10------10------10------10------5-------8--|	x2
-10-----11------10------10------10------10------6-------8--|
-8------11------8-------8-------8-------8-------6-------6--|
--------9---------------------------------------4----------|

 G#	Fm	D#
-4------8-------6--|
-4------9-------8--|
-5------10------8--|	x3
-6------10------8--|
-6------8-------6--|
-4-----------------|

 Fm	A#m	A#m	D#
-8------6-------6-------6--|
-9------6-------6-------8--|
-10-----6-------6-------8--|	x1
-10-----8-------8-------8--|
-8------8-------8-------6--|
--------6-------6----------|

(OUTRO)
 Fm	C#	Fm	Fm	Fm	C#	G#	D#
-8------9-------8-------8-------8-------8-------4-------6--|
-9------9-------9-------9-------9-------9-------4-------8--|
-10-----10------10------10------10------10------5-------8--|
-10-----11------10------10------10------10------6-------8--|
-8------11------8-------8-------8-------8-------6-------6--|
--------9---------------------------------------4----------|
Comments