State Radio - Heady Riser Chords & Tabs

 

Heady Riser Chords & Tabs

State Radio Chords & Tabs

Version: 1 Type: Bass Tab 0 ratings
1 star 2 stars 3 stars 4 stars 5 stars
comments

Heady Riser Bass Tab

   
State Radio
Simmer Kane
Heady Riser
Tabbed by Owen Sakovics
BASS: Eb Ab Db Gb
www.tabsinonefellswoop.com

(1:36)
-----------------5----5----------------------5-5------5--|
-3-3---------5h6---6----6--3-3-----------5h6------5h6----|
------3h4-4---------------------4-4-4-4------------------|
---------------------------------------------------------|

-----------------------------6-6-6-5----|
-3-3-----3------------3--3h6---------6--|
-----4-4---4-4-4-4-4--------------------|
----------------------------------------|

---------------------5-5------5--|
-3---3------------6-------5h6----|
---4----4-4-4-4-4----------------|
---------------------------------|

(3:42)
---------------------------------------------|
-3-----3---3-----6--5--3-----3---3-----6--5--|
----4---------4-----------4---------4--------|
---------------------------------------------|
[ Tab from: http://www.guitartabs.cc/tabs/s/state_radio/heady_riser_btab.html ]
-----------3h5-5---------------------3h5-5---------|
-6-6--3-3---------3------6-6--1h3-3---------3------|
--------------------3-3-----------------------3-3--|
---------------------------------------------------|

------3s5-5------------------------------------|
-6-6------------------8----3-3---------1----1--|
-------------4-6-6--6---6-------1-1-------4----|
-----------------------------------------------|

----------------------5--------------------------5-5--|
-3-3---------3h6-3-3----5--3-3------------6-6--6------|
------3-4-4--------------------3-4-4-4--6-------------|
------------------------------------------------------|

--------------------5----------------------3h5-5--|
-3-3--3--------3-3----3--3-3--------3-6-6---------|
--------4-4--4---------------3-4-4----------------|
--------------------------------------------------|

-----------------------------------------------|
-3-3--3--------6-3---3---3---------------------|
--------4-4-4------4--------4----------s3-3-3--|
-------------------------------4-4--4----------|
Comments