State Radio - First One Shot Chords & Tabs

 

First One Shot Chords & Tabs

State Radio Chords & Tabs

Version: 1 Type: Tab 0 ratings
1 star 2 stars 3 stars 4 stars 5 stars
comments

First One Shot Tab

   
State Radio
Peace Between Nations
First One Shot
Tabbed by Owen Sakovics
Tuning: Eb Ab Db Gb Bb Eb
www.tabsinonefellswoop.com

 C#m	E	B
-4------7-------7--|
-5------9-------7--|
-6------9-------8--|	x4
-6------9-------9--|
-4------7-------9--|
----------------7--|

 C#m	E	B	A
-4------7-------7-------5--|
-5------9-------7-------5--|
-6------9-------8-------6--|	x4
-6------9-------9-------7--|
-4------7-------9-------7--|
----------------7-------5--|

 C#m	A	C#m	A	E	E	B
-4------5-------4-------5-------4-------4-------7--|
-5------5-------5-------5-------5-------5-------7--|
-6------6-------6-------6-------4-------4-------8--|	x2
-6------7-------6-------7-------6-------6-------9--|
-4------7-------4-------7-------7-------7-------9--|
--------5---------------5-----------------------7--|

 E	C#m	A	B
-4------4-------5-------7--|
-5------5-------5-------7--|
-4------6-------6-------8--|	x1
-6------6-------7-------9--|
-7------4-------7-------9--|
----------------5-------7--|

 C#m	C#m B
-4------4---7--|
-5------5---7--|
-6------6---8--|	x2
-6------6---9--|
-4------4---9--|
------------7--|

 E	B	A
-4------7-------5--|
-5------7-------5--|
-4------8-------6--|	x1
-6------9-------7--|
-7------9-------7--|
--------7-------5--|
[ Tab from: http://www.guitartabs.cc/tabs/s/state_radio/first_one_shot_tab.html ]
 C#m	A	C#m	A	E	E	B
-4------5-------4-------5-------4-------4-------7--|
-5------5-------5-------5-------5-------5-------7--|
-6------6-------6-------6-------4-------4-------8--|	x2
-6------7-------6-------7-------6-------6-------9--|
-4------7-------4-------7-------7-------7-------9--|
--------5---------------5-----------------------7--|

 E	C#m	C#m	B
-4------4-------4-------7--|
-5------5-------5-------7--|
-4------6-------6-------8--|	x1
-6------6-------6-------9--|
-7------4-------4-------9--|
------------------------7--|

 C#m	C#m B
-4------4---7--|
-5------5---7--|
-6------6---8--|	x2
-6------6---9--|
-4------4---9--|
------------7--|

 E	B	A
-4------7-------5--|
-5------7-------5--|
-4------8-------6--|	x1
-6------9-------7--|
-7------9-------7--|
--------7-------5--|

 C#m	A
-4------5--|
-5------5--|
-6------6--|	x4
-6------7--|
-4------7--|
--------5--|

 B	C#m
-7------9---|
-7------9---|
-8------9---|	x2
-9------11--|
-9------11--|
-7------9---|

 B	C#m B	A   G#m	F#m    B
-7------9---7---5---4---2------2--|
-7------9---7---5---4---2------4--|
-8------9---8---6---4---2------4--|	x1
-9------11--9---7---6---4------4--|
-9------11--9---7---6---4------2--|
-7------9---7---5---4---2---------|

 C#m	C#m B
-4------4---7--|
-5------5---7--|
-6------6---8--|	x4
-6------6---9--|
-4------4---9--|
------------7--|

 E	C#m	B	A
-4------4-------7-------5--|
-5------5-------7-------5--|
-4------6-------8-------6--|	x2
-6------6-------9-------7--|
-7------4-------9-------7--|
----------------7-------5--|

(OUTRO)
 C#m	C#m B
-4------4---7--|
-5------5---7--|
-6------6---8--|
-6------6---9--|
-4------4---9--|
------------7--|
Comments