State Radio - First One Shot Chords & Tabs

 

First One Shot Chords & Tabs

State Radio Chords & Tabs

Version: 1 Type: Bass Tab 0 ratings
1 star 2 stars 3 stars 4 stars 5 stars
comments

First One Shot Bass Tab

   
State Radio
Peace Between Nations
First One Shot
Tabbed by Owen Sakovics
BASS: Eb Ab Db Gb
www.tabsinonefellswoop.com

------------------------------------|
------------------------------------|	x1
-4-------4-4-4-4------7-------------|
----7-5----------7-5----7--4-5-7-7--|

------------------------------------------|
------------------------------------------|	x1
---4-------4-4-4-4--------7---------------|
-7----7-5----------7-5--7---0--4-4-5-7-7--|

---------------------------------------------------------------------|
---------------------------------------------------------------------|	x1
------7-7----------4------7-7----------4------7-7-----------7--------|
-0--7-----9--4-4-7---0--7-----9--4-4-7---0--7-----9--4-4-7-----7--5--|

--------------------------------------|
--------------------------------------|	x1
---4-------4-4-4-4--------7-----------|
-7----7-5----------7-5--7---0--4-5-7--|

------------------------------------|
------------------------------------|	x1
-4-------4-4-4-4--------7-----------|
----7-5----------7-5--7---7-7--7-7--|

---------------------------------------------------------------------|
---------------------------------------------------------------------|	x1
------7-7----------4------7-7----------4------7-7-----------7--------|
-0--7-----9--4-4-7---0--7-----9--4-4-7---0--7-----9--4-4-7-----7--5--|

------------------------------------------|
------------------------------------------|	x1
----------4--4-7-7-4------4-4--4-7-7-4-4--|
-7-5-4--7-------------7-7-----------------|

---------------------------------------------------------|
--------------------------------------------------7-7-9--|	x1
-----4-7-7-4--------9-7-6--7-4-4---4---9-7-6---6---------|
-7-7----------7-7-9--------------7-----------9-----------|
[ Tab from: http://www.guitartabs.cc/tabs/s/state_radio/first_one_shot_btab.html ]
-----6--6-6---------------------------|
-9-9---------9-9---------2------------|	x1
----------------------------4---------|
------------------2-2-2--------5-5-5--|

------------------------------------------|
------------------------------------------|	x1
------4-7--4-------7----------------------|
-7-7----------7--5-----2-2--4-4-5-7-7--7--|

-------------------------------------------------------|
-------------------------------------------------------|	x1
------7----------4------7-7------------4------7-7------|
-0--7---9--4-4-7---0--7-----9-9--4-4-7---0--7-----9-9--|

------------------------------------------------------------------------|
------------------------------------4-4h6--4----------------------------|		x1
-------4------7-7-----------------7-----------4-6-7--6------4-4h6-4-----|
-4-4-7---0--7-----9-9--9--7-7--0------------------------7-7----------5--|

---------------------------------------|
---4-4h6--4----------------------------|	x1
-7-----------4-6-7--6------4-4h6-4-----|
-----------------------7-7----------5--|

------------------------------------------------|
------------------------------------------------|	x1
-2-------------2-2-------------2-2--------------|
---5-4--4-2-5------5-4--4-2-5------5-4--2-2--0--|

-----------------------------------------------------|
-------------------2-1-------------------------------|	x1
-----------------------4-----------0-2-0-------------|
-0-0-2-4--0-2-5-5---------0-2-5-5--------4--2-2-5-5--|

---------------------------------------------------|
---------------------------------------------------|	x1
-2-2-----------------------------2-2---------------|
-----5-4--2-2-0-0--0-2-4--0-2-4------5-4--2-5-5-5--|

--------------------------------------------------|
--------------------------------------------------|	x1
-2-------------2---------------2---------------4--|
---5-4--2-5-5----4-4--2-0-5-5----5-4-4--2--0------|
Comments