State Radio - Democracy In Kind Chords & Tabs

 

Democracy In Kind Chords & Tabs

State Radio Chords & Tabs

Version: 1 Type: Bass Tab 0 ratings
1 star 2 stars 3 stars 4 stars 5 stars
comments

Democracy In Kind Bass Tab

   
State Radio
Peace Between Nations
Democracy in Kind
Tabbed by Owen Sakovics
BASS: Eb Ab Db Gb
www.tabsinonefellswoop.com

--------------------------|
-0h2-2--2p0---------------|	x4
------------3--0-0-0-0-0--|
--------------------------|

-------------------------------------------------------------------|
-------------------------------------------------------------------|	x1
-0--0-0--0--0-0------------0--0-0--0--0-0--0--0-0----------0--0-0--|
-----------------1--1-1-s3-------------------------3--3-3----------|

------------------------------------|
------------------------------------|	x1
-0--0-0------------------0--0-0-----|
---------1--1-1--3--3-3----------3--|

-----------------------------------------------------|
-----------------------------------------------------|	x1
-0-0-0-0-0-0-0-0-3-3-3-3-3-3-3-3------------------0--|
---------------------------------3-3-3-3-3-3-3-3-----|

-------------2------2---------------------------------|
--------------------------5------5--------------------|	x1
----------0-----0-0------------------0-0-0-0-0-0-0-0--|
-1-1-1-1---------------3-----3-3---3------------------|

-------------2------2-----4------4---|
-------------------------------------|	x1
----------0-----0-0------------------|
-1-1-1-1---------------0----0-0---0--|

--------------------------|
-0h2-2--2p0---------------|	x4
------------3--0-0-0-0-0--|
--------------------------|

---------------------------------------------------------------------|
---------------------------------------------------------------------|	x1
-0-0-0-0-0-0-0-0---------------------------------0-0-0-0-0-0-0-0-----|
-----------------1-1-1-1-1-1-1-1-3-3-3-3-3-3-3-3------------------3--|

-----------------------------------------------------|
-----------------------------------------------------|	x1
-0-0-0-0-0-0-0-0-3-3-3-3-3-3-3-3------------------0--|
---------------------------------3-3-3-3-3-3-3-3-----|

-------------2------2--------------------4--5-7--|
--------------------------5-----5-----7----------|	x1
----------0-----0-0----------------0-------------|
-1-1-1-1---------------3----3-3------------------|
[ Tab from: http://www.guitartabs.cc/tabs/s/state_radio/democracy_in_kind_btab.html ]
-------------2------2-------4------4--|
----------------------0---------------|	x1
----------0-----0-0-------------------|
-1-1-1-1-----------------0-----0-0----|

-------------------s7--4-5--s7--5--4-------------4--|
-0------------------------------------7-5--5-7-7----|	x1
---------0------------------------------------------|
-----3------5-7--7----------------------------------|

-5-5-5---------------------------------------------------------|
--------5-5-5--7-7-7------9-------------5-5-5--7-7-7--7-7-5----|	x1
----------------------7-7---7-7--8-8-8----------------------7--|
---------------------------------------------------------------|

---------------------------------------------------------------|
--------------------------2------------------------------------|	x1
-3-3-3---------0-0-0---------------------------0-0-0--0-0------|
--------3-3-3---------0-0---0-0--1-1-1--3-3-3-------------3-0--|

-----------------------2----------------------------------|
--------------5-----------------2-------------------------|	x1
-3-3-3-------------0-0---0-----------------------------0--|
-------3--3-3---3-----------0-0---0-0--1-1-0-1--3-3-3-----|

--------------------------------------------|
--------------------------------------0-2---|	x1
----------0--0-0----------0--0-2-2h3--------|
-1-1-1-1----------3--3-3--------------------|

-------------2--------2-----|
----------------------------|	x1
----------0-----0-0-0-------|
-1-1-1-1-----------------0--|

-----------------------------------------------|
-----------------------------------------------|	x1
-3h5-5-5-5p3----3------3h5-5-5-5p3----3--------|
-------------5----5-5--------------5----5-5-5--|

-----------------------------------------------|
-----------------------------------------------|	x1
-3h5-5-5-5p3----3------3h5-5-5-5p3----3-2-1-0--|
-------------5----5-5--------------5-----------|

-----------------------------------------------|
-----------------------------------------------|	x1
-3h5-5-5-5p3----3------3h5-5-5-5p3----3--------|
-------------5----5-5--------------5----5-5-5--|

-----------------------------------------------|
-----------------------------------------------|	x2
-3h5-5-5-5p3----3------3h5-5-5-5p3----3-2-1-0--|
-------------5----5-5--------------5-----------|

---------------------------------------------|
---------------------------------------------|	x1
-3h5-5-5-5p3----3------3h5-5-5-5p3----3------|
-------------5----5-5--------------5----5-5--|
Comments