Starting Line - Up And Go Chords & Tabs

 

Up And Go Chords & Tabs

Starting Line Chords & Tabs

Version: 2 Type: Tab

Up And Go Tab

Standard Tuning

from what i can tell this bit sounds pretty accurate

|-----------------------------------|
|-----------------------------------|
|-----------------------------------|
|22-----22--------------------------|
|22-----22--------------------------|
|00-----00--------------------------|


|--------------------------------------|
|--------------------------------------|
|99999999-------6666-----------22222222|
|99999999--9999-6666-4444-2222-22222222|
|77777777--9999-4444-4444-2222-00000000|
|----------7777------2222-0000---------|


CHORUS
|---------------------------------------|
|---------------------------------------|
|99999999-------------------------------|
|99999999-99999999-44444444--22222222---|
|77777777-99999999-44444444--22222222---|
|---------77777777-22222222--00000000---|
[ Tab from: http://www.guitartabs.cc/tabs/s/starting_line/up_and_go_tab_ver_2.html ]
|-----------------------------------------|
|-----------------------------------------|
|99999999---------------------2222222-----|
|99999999-99999999-44444444--22222222-----|
|77777777-99999999-44444444--20000000-----|
|---------77777777-22222222--0------------|

POST CHORUS
|--------------------------------------|
|--------------------------------------|
|99999999-------6666-----------22222222|
|99999999--9999-6666-4444-2222-22222222|
|77777777--9999-4444-4444-2222-00000000|
|----------7777------2222-0000---------|

END
|--------------------------------------|
|--------------------------------------|
|99999999-------6666-----------22222222|
|99999999--9999-6666-4444-2222-22222222|
|77777777--9999-4444-4444-2222-00000000|
|----------7777------2222-0000---------|

|-------------------------------------|
|-------------------------------------|
|99999999-------6666----------2-------|
|99999999--9999-6666-4---2----2-------|
|77777777--9999-4444-4---2----0-------|
|----------7777------2---0------------|