Starting Line - This Ride Chords & Tabs

 

This Ride Chords & Tabs

Starting Line Chords & Tabs

Version: 1 Type: Tab 0 ratings
1 star 2 stars 3 stars 4 stars 5 stars
comments

This Ride Tab

   
DROP D
Guitar 1

Intro
E-----------------------------------
B-----------------------------------
G-----------------------------------
D-55555555-77777777-9999999999999999
A-33333333-55555555-7777777777777777
D-----------------------------------
  ........ ........ ................

E-----------------------------------
B-----------------------------------
G-----------------------------------
D-55555555-77777777-9999999999999999
A-33333333-55555555-7777777777777777
D-----------------------------------
  ........ ........ ................


E-----------------------------------
B-----------------------------------
G-----------------------------------
D-55555555-77777777-9999999999999999
A-33333333-55555555-7777777777777777
D-----------------------------------
  ........ ........ ................


E-----------------------------------
B-----------------------------------
G-----------------------------------
D-55555555-77777777-9999999999999999
A-33333333-55555555-7777777777777777
D-----------------------------------
  ........ ........ ................

Pre-Verse
E-3-3-33333333-2-2-2h3p2-2-3-55-2-2-3-3p2-2--55-2-2-3-3p2-2-
B-3-3-33333333-3-3-3-3-3-----------------3-3-------------3-3
G-----------------------------------------------------------
d-----------------------------------------------------------
A-----------------------------------------------------------
D-----------------------------------------------------------

E-3-3-33333333-2-2-2h3p2-2-3-55-2-2-3-3p2-2--55-2-2-3-3p2-2-
B-3-3-33333333-3-3-3-3-3-----------------3-3-------------3-3
G-----------------------------------------------------------
d-----------------------------------------------------------
A-----------------------------------------------------------
D-----------------------------------------------------------

Verse

E-------------------------------------
B-------------------------------------
G-------------------------------------
d-55555555-77777777-999999999999999---
A-33333333-55555555-7777777777777777s3
D-------------------------------------
  ........ ........ ...............

E-----------------------------------
B-----------------------------------
G-----------------------------------
d-5-5-555-7-7-777-9-9-999-9-9-99----
A-3-3-333-5-5-555-7-7-777-7-7-777s3-
D-----------------------------------
  . . ... . . ... . . ... . . ..

E-----------------------------------
B-----------------------------------
G-----------------------------------
d-5-5-555-7-7-777-9-9-999-9-9-99----
A-3-3-333-5-5-555-7-7-777-7-7-777s3-
D-----------------------------------
  . . ... . . ... . . ... . . ..

E------------------------------------
B------------------------------------
G------------------------------------
d-55555555-77777777-99999999-----9999
A-33333333-55555555-77777777-77777777
D------------------------------------
  ........ ........ ........ 

Chorus
E-3-3-33333333-2-2-2h3p2-2-3-55-2-2-3-3p2-2--55-2-2-3-3p2-2-
B-3-3-33333333-3-3-3-3-3-----------------3-3-------------3-3
G-----------------------------------------------------------
d-----------------------------------------------------------
A-----------------------------------------------------------
D-----------------------------------------------------------

E-3-3-33333333-2-2-2h3p2-2-3-55-2-2-3-3p2-2--55-2-2-3-3p2-2-
B-3-3-33333333-3-3-3-3-3-----------------3-3-------------3-3
G-----------------------------------------------------------
d-----------------------------------------------------------
A-----------------------------------------------------------
D-----------------------------------------------------------

Bridge 1
E----------------------------
B----------------------------
G----------------------------
D-5555-0000-2-0-2-00-2-0-2-00
A-3333-0000-2-0-2-00-2-0-2-00
D------0000-2-0-2-00-2-0-2-00

E-----------3-2-3-22-3-2-3-22
B----------------------------
G----------------------------
D-5555-0000------------------
A-3333-0000------------------
D------0000------------------


E-----------3-2-3-22-3-2-3-2-22h3
B--------------------------------
G--------------------------------
d-5555-0000----------------------
A-3333-0000----------------------
D------0000----------------------

Verse 2

E-2-2-2h3
B--------
G--------
d--------
A--------
D--------

E------------------------------------------------
B------------------------------------------------
G-7-7-7-7-7-7-7-7-7-7-7-7-7-7-7-7-7-7-7-777777777
d------------------------------------------------
A------------------------------------------------
D------------------------------------------------

Chorus
E-3-3-33333333-2-2-2h3p2-2-3-55-2-2-3-3p2-2--55-2-2-3-3p2-2-
B-3-3-33333333-3-3-3-3-3-----------------3-3-------------3-3
G-----------------------------------------------------------
d-----------------------------------------------------------
A-----------------------------------------------------------
D-----------------------------------------------------------

E-3-3-33333333-2-2-2h3p2-2-3-55-2-2-3-3p2-2--55-2-2-3-3p2-2-
B-3-3-33333333-3-3-3-3-3-----------------3-3-------------3-3
G-----------------------------------------------------------
d-----------------------------------------------------------
A-----------------------------------------------------------
D-----------------------------------------------------------

Bridge 2
E--------------------
B--------------------
G-5--------7--------9
d-5--------7--------9
A-3--------5--------7
D--------------------

E--------------------------
B--------------------------
G--------------------------
d-55--55-77--77-99--9999--9
A-33--33-55--55-77--7777--7
D--------------------------
  ..  .. ..  .. ..  ....  . 

E-------------------------------
B-------------------------------
G-------------------------------
d-55--55-77--77-99-99-99-99-9999
A-33--33-55--55-77-77-77-77-7777
D-------------------------------
  ..  .. ..  .. .. .. .. .. ....

E--------------------------
B--------------------------
G--------------------------
d-55--55-77--77-99--9999--9
A-33--33-55--55-77--7777--7
D--------------------------
  ..  .. ..  .. ..  ....  .

E-------------------------------
B-------------------------------
G-------------------------------
d-55--55-77--77-99-99-99-99-9999
A-33--33-55--55-77-77-77-77-7777
D-------------------------------
  ..  .. ..  .. .. .. .. .. ....

E-------------------------
B-------------------------
G-999-111111-1212-141414--
D-999-111111-1212-141414--
A-777-9-9-9--1010-121212--
D-----------------------0-

Chorus
E-3-3-33333333-2-2-2h3p2-2-3-55-2-2-3-3p2-2--55-2-2-3-3p2-2-
B-3-3-33333333-3-3-3-3-3-----------------3-3-------------3-3
G-----------------------------------------------------------
d-----------------------------------------------------------
A-----------------------------------------------------------
D-----------------------------------------------------------

E-3-3-33333333-2-2-2h3p2-2-3-55-2-2-3-3p2-2--55-2-2-3-3p2-2-
B-3-3-33333333-3-3-3-3-3-----------------3-3-------------3-3
G-----------------------------------------------------------
d-----------------------------------------------------------
A-----------------------------------------------------------
D-----------------------------------------------------------

E-3-3-33333333-2-2-2h3p2-2-3-55-2-2-3-3p2-2--55-2-2-3-3p2-2-
B-3-3-33333333-3-3-3-3-3-----------------3-3-------------3-3
G-----------------------------------------------------------
d-----------------------------------------------------------
A-----------------------------------------------------------
D-----------------------------------------------------------
[ Tab from: http://www.guitartabs.cc/tabs/s/starting_line/this_ride_tab.html ]
E-3-3-33333333-2-2-2h3p2-2-3-55-2-2-3-3p2-2--55-2-2-3-3p2-2-
B-3-3-33333333-3-3-3-3-3-----------------3-3-------------3-3
G-----------------------------------------------------------
d-----------------------------------------------------------
A-----------------------------------------------------------
D-----------------------------------------------------------

Outro
E-----------------------------------
B-----------------------------------
G-----------------------------------
D-55555555-77777777-9999999999999999
A-33333333-55555555-7777777777777777
D-----------------------------------
  ........ ........ ................

E-----------------------------------
B-----------------------------------
G-----------------------------------
D-55555555-77777777-9999999999999999
A-33333333-55555555-7777777777777777
D-----------------------------------
  ........ ........ ................

No order cus i tabbed everything you play the correct amount of times
_______________________________________________________

Guitar2

No guitar 2 during intro

Pre-verse/chorus
E--------------------------------------------
B--------------------------------------------
G--------------------------------------------
D-5-5-555555-4-4-444444-5555555-55-5555555-55
A-5-5-555555-4-4-444444-3333333-33-3333333-33
D-5-5-555555-4-4-444444----------------------

E--------------------------------------------
B--------------------------------------------
G--------------------------------------------
D-5-5-555555-4-4-444444-5555555-55-5555555-55
A-5-5-555555-4-4-444444-3333333-33-3333333-33
D-5-5-555555-4-4-444444----------------------

Verse 1
E---------------------------------
B---------------------------------
G---------------------------------
D-5-5-555-7-7-777-9-9-999-9-9-999-
A-3-3-333-5-5-555-7-7-777-7-7-777-
D---------------------------------
  . . ... . . ... . . ... . . ...

E---------------------------------
B---------------------------------
G---------------------------------
D-5-5-555-7-7-777-9-9-999-9-9-999-
A-3-3-333-5-5-555-7-7-777-7-7-777-
D---------------------------------
  . . ... . . ... . . ... . . ...

E---------------------------------
B---------------------------------
G---------------------------------
D-5-5-555-7-7-777-9-9-999-9-9-999-
A-3-3-333-5-5-555-7-7-777-7-7-777-
D---------------------------------
  . . ... . . ... . . ... . . ...

E---------------------------------
B---------------------------------
G---------------------------------
D-5-5-555-7-7-777-9-9-999-9-9-999-
A-3-3-333-5-5-555-7-7-777-7-7-777-
D---------------------------------
  . . ... . . ... . . ... . . ...


E--------------------------------------------
B--------------------------------------------
G--------------------------------------------
D-5-5-555555-4-4-444444-5555555-55-5555555-55
A-5-5-555555-4-4-444444-3333333-33-3333333-33
D-5-5-555555-4-4-444444----------------------


E--------------------------------------------
B--------------------------------------------
G--------------------------------------------
D-5-5-555555-4-4-444444-5555555-55-5555555-55
A-5-5-555555-4-4-444444-3333333-33-3333333-33
D-5-5-555555-4-4-444444----------------------

Bridge 1
E----------------------------
B----------------------------
G----------------------------
D-5555-0000-2-0-2-00-2-0-2-00
A-3333-0000-2-0-2-00-2-0-2-00
D------0000-2-0-2-00-2-0-2-00

E----------------------------
B----------------------------
G----------------------------
D-5555-0000-2-0-2-00-2-0-2-00
A-3333-0000-2-0-2-00-2-0-2-00
D------0000-2-0-2-00-2-0-2-00

E-----------3-2-3-2-2-3-2-3-2-2
B------------------------------
G------------------------------
d-5555-------------------------
A-3333-------------------------
D------0000--------------------

Verse 2
E------------------------------------
B------------------------------------
G------------------------------------
D-55555555-77777777-9999999999999999-
A-33333333-55555555-7777777777777777-
D------------------------------------
  ........ ........ ................

E------------------------------------
B------------------------------------
G------------------------------------
D-55555555-77777777-9999999999999999-
A-33333333-55555555-7777777777777777-
D------------------------------------
  ........ ........ ................

E------------------------------------
B------------------------------------
G------------------------------------
D-55555555-77777777-9999999999999999-
A-33333333-55555555-7777777777777777-
D------------------------------------
  ........ ........ ................

E------------------------------------
B------------------------------------
G------------------------------------
D-55555555-77777777-9999999999999999-
A-33333333-55555555-7777777777777777-
D------------------------------------
  ........ ........ ................

E--------------------------------------------
B--------------------------------------------
G--------------------------------------------
D-5-5-555555-4-4-444444-5555555-55-5555555-55
A-5-5-555555-4-4-444444-3333333-33-3333333-33
D-5-5-555555-4-4-444444----------------------

E--------------------------------------------
B--------------------------------------------
G--------------------------------------------
D-5-5-555555-4-4-444444-5555555-55-5555555-55
A-5-5-555555-4-4-444444-3333333-33-3333333-33
D-5-5-555555-4-4-444444----------------------

Bridge 2
E-----------------
B-----------------
G-5---7---9-------
d-5---7---9-------
A-3---5---7-------
D-----------------

E--------------------------
B--------------------------
G--------------------------
d-55--55-77--77-99--9999--9
A-33--33-55--55-77--7777--7
D--------------------------
  ..  .. ..  .. ..  ....  .

E-------------------------------
B-------------------------------
G-------------------------------
d-55--55-77--77-99-99-99-99-9999
A-33--33-55--55-77-77-77-77-7777
D-------------------------------
  ..  .. ..  .. .. .. .. .. ....

E--------------------------
B--------------------------
G--------------------------
d-55--55-77--77-99--9999--9
A-33--33-55--55-77--7777--7
D--------------------------
  ..  .. ..  .. ..  ....  .

E-------------------------------
B-------------------------------
G-------------------------------
d-55--55-77--77-99-99-99-99-9999
A-33--33-55--55-77-77-77-77-7777
D-------------------------------
  ..  .. ..  .. .. .. .. .. ....

E--------------------------------------------
B--------------------------------------------
G--------------------------------------------
D-5-5-555555-4-4-444444-5555555-55-5555555-55
A-5-5-555555-4-4-444444-3333333-33-3333333-33
D-5-5-555555-4-4-444444----------------------

E--------------------------------------------
B--------------------------------------------
G--------------------------------------------
D-5-5-555555-4-4-444444-5555555-55-5555555-55
A-5-5-555555-4-4-444444-3333333-33-3333333-33
D-5-5-555555-4-4-444444----------------------

E--------------------------------------------
B--------------------------------------------
G--------------------------------------------
D-5-5-555555-4-4-444444-5555555-55-5555555-55
A-5-5-555555-4-4-444444-3333333-33-3333333-33
D-5-5-555555-4-4-444444----------------------

E--------------------------------------------
B--------------------------------------------
G--------------------------------------------
D-5-5-555555-4-4-444444-5555555-55-5555555-55
A-5-5-555555-4-4-444444-3333333-33-3333333-33
D-5-5-555555-4-4-444444----------------------

no guitar 2 during outro.
email me at because419@aol.com
Comments