Starting Line - The Night Life Chords & Tabs

 

The Night Life Chords & Tabs

Starting Line Chords & Tabs

Version: 1 Type: Tab 0 ratings
1 star 2 stars 3 stars 4 stars 5 stars
comments

The Night Life Tab

   
----------------------------------------------------------------------------
			    The Night Life - The Starting Line
----------------------------------------------------------------------------
Tabbed by:
Email:

Tuning:

*=16

e|----0*------0*-----------|
B|----5-------0------------|
G|----6-------2------------|  4x
D|----7-------4------------|
A|----0-------0------------|
E|----0-------0------------|

          (listen to how many times each is played)

e|--0---    --------0---    ---0----------| (there is a puase before the
B|--3---    --------5---    ---0----------|    8th and 9th time)
G|--4--- 12x--------6---4x  ---7----------|9x      1x
D|--4---    --------6---    ---7----------|
A|--2---    --------4---    ---5----------|
E|--0---    --------0---    ---0----------|

e|----0*------0*-----------|
B|----5-------0------------|
G|----6-------2------------|  4x
D|----7-------4------------|
A|----0-------0------------|
E|----0-------0------------|

e|----0--    -----0---     -----0---------|
B|----3--    -----5---     -----0---------|
G|----4--12x -----6---4x   -----7---------|
D|----4--    -----6---     -----7---------|9x  1x
A|----2--    -----4---     -----5---------|
E|----0--    -----0---     -----0---------|

e|----0*----------0-------   ----0-----   -------0-------|
B|----5-----------9-------   ----10----   -------9-------|
G|----6-----------9-------6x-----9-----4x -------9-------|4x    2x
D|----7-----------7-------   ----7-----   -------7-------|
A|----0-----------0-------   ----0-----   -------0-------|
E|----0-----------0-------   ----0-----   -------0-------|

(im not too sure about this part, listen to how many times each is played)


e|-----------------------|
B|-----------------------|
G|---4----2-----6--------| 3x
D|---4----4-----6--------|
A|---2----------4--------|
E|-----------------------|
[ Tab from: http://www.guitartabs.cc/tabs/s/starting_line/the_night_life_tab.html ]
e|----0*------0*-----------|
B|----5-------0------------|
G|----6-------2------------|  4x
D|----7-------4------------|
A|----0-------0------------|
E|----0-------0------------|

e|----0--    -----0---     -----0---------|
B|----3--    -----5---     -----0---------|
G|----4--12x -----6---4x   -----7---------|
D|----4--    -----6---     -----7---------|9x  1x
A|----2--    -----4---     -----5---------|
E|----0--    -----0---     -----0---------|


e|----0*----------0-------   ----0-----   -------0-------|
B|----5-----------9-------   ----10----   -------9-------|
G|----6-----------9-------6x-----9-----4x -------9-------|4x
D|----7-----------7-------   ----7-----   -------7-------|
A|----0-----------0-------   ----0-----   -------0-------|
E|----0-----------0-------   ----0-----   -------0-------|

e|----0*------0*-----------|
B|----5-------0------------|
G|----6-------2------------|
D|----7-------4------------|
A|----0-------0------------|
E|----0-------0------------|

(listen to how many times each is played)

e|-----------------------|
B|-----------------------|
G|---4----2-----6--------| 3x
D|---4----4-----6--------|
A|---2----------4--------|
E|-----------------------|

e|----0-------0------------|
B|----5-------0------------|
G|----6-------2------------|7x
D|----7-------4------------|
A|----0-------0------------|
E|----0-------0------------|

(listen to how many times each is played)

e|-----------------------|
B|-----------------------|
G|---4----2-----6--------| 3x
D|---4----4-----6--------|
A|---2----------4--------|
E|-----------------------|

e|----0*------0*-----------|
B|----5-------0------------|
G|----6-------2------------|  4x
D|----7-------4------------|
A|----0-------0------------|
E|----0-------0------------|


| /  slide up
| \  slide down
| h  hammer-on
| p  pull-off
| ~  vibrato
| +  harmonic
| x  Mute note
===============================================================================
Comments