Starting Line - The Best Of Me Chords & Tabs

 

The Best Of Me Chords & Tabs

Starting Line Chords & Tabs

Version: 7 Type: Tab 0 ratings
1 star 2 stars 3 stars 4 stars 5 stars
comments

The Best Of Me Tab

i am 100% sure that this tab is right.

|(.)=palm mute   |S.P.N.S.=Struming Pattern Not Shown
|(x)=mute string |
|(~)=let ring    |
|(^)=strum       |

Intro:Acoustic
|-----------------------------------|
|-----------------------------------|
|--9---------4----4----4----4----4--|S.P.N.S.
|--9----7----4----2----2----2----4--|
|--7----7----2----4----0----4----2--|
|-------5---------------------------|

|-----------------------------------------|
|-----------------------------------------|
|--1----4----4----4----4----4--4--4--444--|
|--2----2----4----2----2----2--4--2--222--|
|--2----0----2----4----0----4--2--0--000--|
|-----------------------------------------|

Pre-Verse:Guitar 2
|-----------------------------------------------------------------------------|
|-----------------------------------------------------------------------------|
|-13--16--11--9--9--4--9-9-9-9-9---9--9--6--4-9--9-8--8-9-8-9-8------2--9~999\|
|--x---x---x--x--x--x--x-x-x-x-x---x--x--x--x-x--x-x--x-x-x-x-x-(2x)-2--9~999\|
|-11--14---9--7--7--2--7-7-7-7-7---7--7--4--2-7--7-6--6-7-6-7-6------0--7~777\|
|-----------------------------------------------------------------------------|
                                                                    (^)
Pre-Verse/Verse-Guitar 1
|----0--0---0--0---0--0---0--0--|
|---0--0---0--0---0--0---0--0---|
|--9--9---8--8---6--6---4--4----|
|-------------------------------|
|-------------------------------|
|-------------------------------|

Verse:Guitar 2
|-------------------------------------------|
|-------------------------------------------|
|----------9\---2-----------9\---2----------|
|--222-----9\---2--222------9\---2--222-----|
|--222-x8--7\---0--222-x12--7\---0--222-x4--|
|--000-------------000--------------000-----|
   ...         (^) ...          (^) ...

Pre Chorus:Guitars 1 and 2
|-------------------------------------------------------------|
|-------------------------------------------------------------|
|-------------------------------------------------------------|
|--4-4-4-4-4-4-4-4-7-7-7-7-7-7-7-7-4-4-4-4-4-4-4-4-777777777--|
|--4-4-4-4-4-4-4-4-7-7-7-7-7-7-7-7-4-4-4-4-4-4-4-4-777777777--|
|--2-2-2-2-2-2-2-2-5-5-5-5-5-5-5-5-2-2-2-2-2-2-2-2-555555555--|

Chorus:
|-----------------------------------------------------------|
|-----------------------------------------------------------|
|-----2--4--6--2--6--4-----2--4--6--2--6--4----2--9~--999\--|
|--2--2--4--6--2--6--4--2--2--4--6--2--6--4----2--9~--999\--|
|--2--0--2--4--0--4--2--2--0--2--4--0--4--2----0--7~--777\--|
|--0--------------------0-----------------------------------|
                                              (^)
                                 
Verse-Guitar 1
|----0--0---0--0---0--0---0--0--|
|---0--0---0--0---0--0---0--0---|
|--9--9---8--8---6--6---4--4----|
|-------------------------------|
|-------------------------------|
|-------------------------------|
[ Tab from: http://www.guitartabs.cc/tabs/s/starting_line/the_best_of_me_tab_ver_7.html ]
Verse:Guitar 2
|---------------------------|
|---------------------------|
|----------9\---2-----------|
|--222-----9\---2--222------|
|--222-x8--7\---0--222-x4---|
|--000-------------000------|
   ...         (^) ...          

Pre Chorus:Guitars 1 and 2
|-------------------------------------------------------------|
|-------------------------------------------------------------|
|-------------------------------------------------------------|
|--4-4-4-4-4-4-4-4-7-7-7-7-7-7-7-7-4-4-4-4-4-4-4-4-777777777--|
|--4-4-4-4-4-4-4-4-7-7-7-7-7-7-7-7-4-4-4-4-4-4-4-4-777777777--|
|--2-2-2-2-2-2-2-2-5-5-5-5-5-5-5-5-2-2-2-2-2-2-2-2-555555555--|

Chorus:
|-------------------------------------------------|
|-------------------------------------------------|
|-----2--4--6--2--6--4-----2--4--6--2--6--4----2--|
|--2--2--4--6--2--6--4--2--2--4--6--2--6--4----2--|
|--2--0--2--4--0--4--2--2--0--2--4--0--4--2----0--|
|--0--------------------0-------------------------|
                                              (^)
                                 
Solo:
|-----------------------------------------------------------------------------|
|-----------------------------------------------------------------------------|
|-----------------------------------------------------------------------------|
|-----------------------------------------------------------------------------|
|--6-9-4-2-2---2-2--2-2-----2-2-1-12121--6-9-4-2-2---2-2--2-2-----2-2-1-12121-|
|------------2----------4-2------------------------2----------4-2-------------|


Bridge:Guitar 1
|-----------------------------------|
|-----------------------------------|
|---4---4---4---4---4---4---4---4---|
|--2-2-2-2-2-2-2-2-2-2-2-2-2-2-2-2--|
|-0---0---0---0---4---4---4---4-----|
|-----------------------------------|


Bridge:Guitar 2
|--0---0---0---0-----0----------------------------------|
|---4---4---4---4----0----------------------------------|
|----4---4---4---4---4--(use delay for the last chord)--|
|--------------------2----------------------------------|
|--------------------0----------------------------------|
|-------------------------------------------------------|

Chorus:
|--------------------------------------------------------------------------|
|--------------------------------------------------------------------------|S
|-----2--4--6--2--6--4-----2--4--6--2--6--4--2--4--6--4--2222222222222222--|P
|--2--2--4--6--2--6--4--2--2--4--6--2--6--4--2--4--6--4--2222222222222222--|N
|--2--0--2--4--0--4--2--2--0--2--4--0--4--2--0--2--4--2--0000000000000000--|S
|--0--------------------0--------------------------------------------------|

Outro:Electric
|------------------------------------|
|------------------------------------|
|--1----4----4----4----4----4--4--4--|S.P.N.S
|--2----2----4----2----2----2--4--2--|
|--2----0----2----4----0----4--2--0--|
|------------------------------------|



This song kicks ass. E-mail me @ Koza_21@snowboard.com for comments.Have fun!
Comments