Starting Line - The Best Of Me Chords & Tabs

 

The Best Of Me Chords & Tabs

Starting Line Chords & Tabs

Version: 6 Type: Tab 0 ratings
1 star 2 stars 3 stars 4 stars 5 stars
comments

The Best Of Me Tab

Starting Line
The Best Of Me
Tunning: Standard

Tabbed By: Dysfunctional03
Palm Mule = .


INTRO: Acoustic Guitar

----------------------------------------------
----------------------------------------------
-9-9---9-9--9-9-9-----9-9--9-9-9-9-9--------
-9-9---9-9--9-9-9-----9-9--9-9-9-9-9--4x----
-7-7---0-0--0-0-0-----0-0--0-0-0-0-0--------
-------0-0--0-0-0-----9-9--7-7-7-7-7--------

-------------------
-------------------
-9-9---9-----------  End Intro on this
-9-9---9-----------  
-7-7---7-----------
-------------------


INTRO: Electric Guitar (Distortion) (Guitar 1)
--------------------------------------------------------------
--------------------------------------------------------------
--13--16--11--9--4--9--9--9--9--6--4--9--9--8--8--9--8--9-----
---x---x---x--x--x--x--x--x--x--x--x--x--x--x--x--x--x--x-x2--
--11--14---9--7--2--7--7--7--7--4--2--7--7--6--6--7--6--7-----
--------------------------------------------------------------

---------------------
---------------------
-9-9---9-------------  End Intro on this
-9-9---9-------------
-7-7---7-------------
---------------------

Verse (Guitar 2)

----0--0--0--0--0--0--0--0--------- 
---0--0--0--0--0--0--0--0----------
--9--9--8--8--6--6--4--4-----------
-----------------------------------
-----------------------------------
-----------------------------------


Verse 1 (Guitar 1)

------------------------------------------------------------
------------------------------------------------------------
------------------------------------------------------------
-2-2-2--2-2-2--2-2-2--2-2-2--2-2-2--2-2-2--2-2-2--2-2-2-----
-2-2-2--2-2-2--2-2-2--2-2-2--2-2-2--2-2-2--2-2-2--2-2-2-----
-0-0-0--0-0-0--0-0-0--0-0-0--0-0-0--0-0-0--0-0-0--0-0-0-----
 . . .  . . .  . . .  . . .  . . .  . . .  . . .  . . .

-------------------------------------------------------------
-------------------------------------------------------------
------------------------------------------9-9--9-------------
-9-9-9-9-9-9-9-9-9-9-9-9-9-9-9-9----------9-9--9-------------
-9-9-9-9-9-9-9-9-9-9-9-9-9-9-9-9----------7-7--7-------------
-7-7-7-7-7-7-7-7-7-7-7-7-7-7-7-7-----------------------------  

------------------------------------------------------------
------------------------------------------------------------
------------------------------------------------------------
-2-2-2--2-2-2--2-2-2--2-2-2--2-2-2--2-2-2--2-2-2--2-2-2-----
-2-2-2--2-2-2--2-2-2--2-2-2--2-2-2--2-2-2--2-2-2--2-2-2-----
-0-0-0--0-0-0--0-0-0--0-0-0--0-0-0--0-0-0--0-0-0--0-0-0-----
 . . .  . . .  . . .  . . .  . . .  . . .  . . .  . . .

-----------------------------
-----------------------------
-----------------------------
-2-2-2--2-2-2--2-2-2--2-2-2--
-2-2-2--2-2-2--2-2-2--2-2-2--
-0-0-0--0-0-0--0-0-0--0-0-0--
 . . .  . . .  . . .  . . .  


-------------------------------------------------------------
-------------------------------------------------------------
------------------------------------------9-9--9-------------
-9-9-9-9-9-9-9-9-9-9-9-9-9-9-9-9----------9-9--9-------------
-9-9-9-9-9-9-9-9-9-9-9-9-9-9-9-9----------7-7--7-------------
-7-7-7-7-7-7-7-7-7-7-7-7-7-7-7-7-----------------------------  

-----------------------------
-----------------------------
-----------------------------
-2-2-2--2-2-2--2-2-2--2-2-2--
-2-2-2--2-2-2--2-2-2--2-2-2--
-0-0-0--0-0-0--0-0-0--0-0-0--
 . . .  . . .  . . .  . . .  


Pre - Chorus:                              

--------------------------------------------------------------------------
--------------------------------------------------------------------------
--------------------------------------------------------------------------
-4-4-4-4-4-4-4-4--7-7-7-7-7-7-7-7--4-4-4-4-4-4-4-4--777777777-------------
-4-4-4-4-4-4-4-4--7-7-7-7-7-7-7-7--4-4-4-4-4-4-4-4--777777777-------------
-2-2-2-2-2-2-2-2--5-5-5-5-5-5-5-5--2-2-2-2-2-2-2-2--555555555-------------


Chorus:

----------------------------------------------------
----------------------------------------------------
------2-2--2-2-2--6-6-6--4-4-4----------------------
-2-2--2-2--2-2-2--6-6-6--4-4-4----------------------
-2-2--0-0--0-0-0--4-4-4--2-2-2----------------------
-0-0------------------------------------------------

-------------------------------------------------------------
-------------------------------------------------------------
------------------------------------------9-9--9-------------
-9-9-9-9-9-9-9-9-9-9-9-9-9-9-9-9----------9-9--9-------------
-9-9-9-9-9-9-9-9-9-9-9-9-9-9-9-9----------7-7--7-------------
-7-7-7-7-7-7-7-7-7-7-7-7-7-7-7-7-----------------------------

Verse (Guitar 2)
[ Tab from: http://www.guitartabs.cc/tabs/s/starting_line/the_best_of_me_tab_ver_6.html ]
----0--0--0--0--0--0--0--0--------- 
---0--0--0--0--0--0--0--0----------
--9--9--8--8--6--6--4--4-----------
-----------------------------------
-----------------------------------
----------------------------------- 


Verse 2 (Guitar 1)

------------------------------------------------------------
------------------------------------------------------------
------------------------------------------------------------
-2-2-2--2-2-2--2-2-2--2-2-2--2-2-2--2-2-2--2-2-2--2-2-2-----
-2-2-2--2-2-2--2-2-2--2-2-2--2-2-2--2-2-2--2-2-2--2-2-2-----
-0-0-0--0-0-0--0-0-0--0-0-0--0-0-0--0-0-0--0-0-0--0-0-0-----
 . . .  . . .  . . .  . . .  . . .  . . .  . . .  . . .

-------------------------------------------------------------
-------------------------------------------------------------
------------------------------------------9-9--9-------------
-9-9-9-9-9-9-9-9-9-9-9-9-9-9-9-9----------9-9--9-------------
-9-9-9-9-9-9-9-9-9-9-9-9-9-9-9-9----------7-7--7-------------
-7-7-7-7-7-7-7-7-7-7-7-7-7-7-7-7----------------------------- 

-----------------------------
-----------------------------
-----------------------------
-2-2-2--2-2-2--2-2-2--2-2-2--
-2-2-2--2-2-2--2-2-2--2-2-2--
-0-0-0--0-0-0--0-0-0--0-0-0--
 . . .  . . .  . . .  . . . 


Pre - Chorus:                              

--------------------------------------------------------------------------
--------------------------------------------------------------------------
--------------------------------------------------------------------------
-4-4-4-4-4-4-4-4--7-7-7-7-7-7-7-7--4-4-4-4-4-4-4-4--777777777-------------
-4-4-4-4-4-4-4-4--7-7-7-7-7-7-7-7--4-4-4-4-4-4-4-4--777777777-------------
-2-2-2-2-2-2-2-2--5-5-5-5-5-5-5-5--2-2-2-2-2-2-2-2--555555555-------------


Chorus:

----------------------------------------------------
----------------------------------------------------
------2-2--2-2-2--6-6-6--4-4-4----------------------
-2-2--2-2--2-2-2--6-6-6--4-4-4----------------------
-2-2--0-0--0-0-0--4-4-4--2-2-2----------------------
-0-0------------------------------------------------

-------------------------------------------------------------
-------------------------------------------------------------
------------------------------------------9-9--9-------------
-9-9-9-9-9-9-9-9-9-9-9-9-9-9-9-9----------9-9--9-------------
-9-9-9-9-9-9-9-9-9-9-9-9-9-9-9-9----------7-7--7-------------
-7-7-7-7-7-7-7-7-7-7-7-7-7-7-7-7-----------------------------

Interlude

--------------------------------------------------------------
--------------------------------------------------------------
--13--16--11--9--4--9--9--9--9--6--4--9--9--8--8--9--8--9-----
---x---x---x--x--x--x--x--x--x--x--x--x--x--x--x--x--x--x-x2--
--11--14---9--7--2--7--7--7--7--4--2--7--7--6--6--7--6--7-----
--------------------------------------------------------------

---------------------
---------------------
-9-9---9-------------  End Interlude on this
-9-9---9-------------
-7-7---7-------------
---------------------


Bridge (Guitar 1)

------------------------------------------------
------------------------------------------------
-----4---------4---------4---------4------------
---2---2-----2---2-----2---2-----2----2---------
-0---------0---------0---------0----------------
------------------------------------------------

------------------------------------------------
------------------------------------------------
-----4---------4---------4--------4-------------
---2---4-----2---4-----2---4----2---4-----------
-4---------4---------4--------4-----------------
------------------------------------------------

Bridge  (Guitar 2)

-0-------0------0-----0----------0-------
---4-------4------4-----4--------0-------
-----4-------4------4-----4------4-------
---------------------------------2-------
---------------------------------0-------
-----------------------------------------

Chorus:

----------------------------------------------------
----------------------------------------------------
------2-2--2-2-2--6-6-6--4-4-4----------------------
-2-2--2-2--2-2-2--6-6-6--4-4-4----------------------
-2-2--0-0--0-0-0--4-4-4--2-2-2----------------------
-0-0------------------------------------------------

-------------------------------------------------------------
-------------------------------------------------------------
------------------------------------------9-9--9-------------
-9-9-9-9-9-9-9-9-9-9-9-9-9-9-9-9----------9-9--9-------------
-9-9-9-9-9-9-9-9-9-9-9-9-9-9-9-9----------7-7--7-------------
-7-7-7-7-7-7-7-7-7-7-7-7-7-7-7-7-----------------------------


OUTRO: Electric Guitar (Clean)

----------------------------------------------
----------------------------------------------
-9-9---9-9--9-9-9-----9-9--9-9-9-9-9----------
-9-9---9-9--9-9-9-----9-9--9-9-9-9-9----------
-7-7---0-0--0-0-0-----0-0--0-0-0-0-0----------
-------0-0--0-0-0-----9-9--7-7-7-7-7----------

-------------------
-------------------
-9-9---9-----------  End Outro on this
-9-9---9-----------  
-7-7---7-----------
-------------------
Comments