Starting Line - The Best Of Me Chords & Tabs

 

The Best Of Me Chords & Tabs

Starting Line Chords & Tabs

Version: 3 Type: Tab 0 ratings
1 star 2 stars 3 stars 4 stars 5 stars
comments

The Best Of Me Tab

I'm 100% sure this is right

1st  time
|-----------------------------------|
|-----------------------------------|
|-9---------4----4----4----4----4---|
|-9----7----4----2----2----2----4---|
|-7----7----2----4----0----4----2---|
|------5----------------------------|
[ Tab from: http://www.guitartabs.cc/tabs/s/starting_line/the_best_of_me_tab_ver_3.html ]
2nd time
|---------------------------------------|
|---------------------------------------|
|-1----4----4----4----4----4--4--4--444-|
|-2----2----4----2----2----2--4--2--222-|
|-2----0----2----4----0----4--2--0--000-|
|---------------------------------------|

listen to the song for (rythm) and (chord changes)

|-000-000-000-000-||
|-000-000-555-000-||
|-999-888-666-444-||
|-----------------||
|-----------------||
|-----------------||
Comments