Starting Line - The Best Of Me Chords & Tabs

 

The Best Of Me Chords & Tabs

Starting Line Chords & Tabs

Version: 2 Type: Tab 0 ratings
1 star 2 stars 3 stars 4 stars 5 stars
comments

The Best Of Me Tab

standard tuning
X = mute string
.=palm mute

intro: (accoustic guitar)

e--0-------0-------0-------0-------0-------0-------0-------0-------
b--0-------0-------0-------0-------0-------0-------0-------0-------
g--1-------2-------4-------4-------2-------2-------4-------4-------
d--2-------2-------4-------2-------2-------2-------2-------4-------
a--2-------0-------2-------4-------0-------0-------4-------2-------
e--0-------x-------x-------x-------x-------x-------x-------x-------

e--0-------0-------0-------0-------0-------0-------0-------0-------0-------
b--0-------0-------0-------0-------0-------0-------0-------0-------0-------
g--1-------2-------4-------4-------2-------2-------4-------4-------2-------
d--2-------2-------4-------2-------2-------2-------2-------4-------2-------
a--2-------0-------2-------4-------0-------0-------4-------2-------0-------
e--0-------x-------x-------x-------x-------x-------x-------x-------x-------


intro/interlude: (electric guitar, this is played after the accoustic part)
e------------------------------------------------------------------------------
b------------------------------------------------------------------------------
g--13--16--11--9--4--9--9--9--9--6--4--9--9--8--8--9--8--9----------9---999\---
d---x---x---x--x--x--x--x--x--x--x--x--x--x--x--x--x--x--x-x2-then--9---999\---
a--11--14---9--7--2--7--7--7--7--4--2--7--7--6--6--7--6--7----------7---777\---
e------------------------------------------------------------------------------
                                           

pre-verse/verse: (guitar 2)
e----0--0--0--0--0--0--0--0 --------
b---0--0--0--0--0--0--0--0----------
g--9--9--8--8--6--6--4--4-----------
d-----------------------------------
a-----------------------------------
e-----------------------------------


verse: (guitar 1)
e------------------------------------------------------------------------------
b------------------------------------------------------------------------------
g----------9\--2222222222222222------------9\--2222222222222222-----------9\---
d-222------9\--2222222222222222--222-------9\--2222222222222222--222------9\---
a-222--x8--7\--0000000000000000--222--x12--7\--0000000000000000--222--x4--7\---
e-000----------------------------000-----------------------------000-----------
  ...                            ...                             ...


pre-chorus:                              
e--------------------------------------------------------------------------
b--------------------------------------------------------------------------
g--------------------------------------------------------------------------
d-4-4-4-4-4-4-4-4--7-7-7-7-7-7-7-7--4-4-4-4-4-4-4-4--777777777-------------
a-4-4-4-4-4-4-4-4--7-7-7-7-7-7-7-7--4-4-4-4-4-4-4-4--777777777-------------
e-2-2-2-2-2-2-2-2--5-5-5-5-5-5-5-5--2-2-2-2-2-2-2-2--555555555-------------

[ Tab from: http://www.guitartabs.cc/tabs/s/starting_line/the_best_of_me_tab_ver_2.html ]
chorus
e------------------------------------------------------------------------------
b------------------------------------------------------------------------------
g-----2--4--6--2--4--6--4-----2--4--6--2--4--6--4--2222222222222222--9--999\---
d--2--2--4--6--2--4--6--4--2--2--4--6--2--4--6--4--2222222222222222--9--999\---
a--2--0--2--4--0--2--4--2--2--0--2--4--0--2--4--2--0000000000000000--7--777\---
e--0-----------------------0---------------------------------------------------
  
pre-verse/verse: (guitar 2)
e----0--0--0--0--0--0--0--0-------------------
b---0--0--0--0--0--0--0--0--------------------
g--9--9--8--8--6--6--4--4---------------------
d---------------------------------------------
a---------------------------------------------
e---------------------------------------------

verse 2: (guitar 1)
e------------------------------------------------------------
b------------------------------------------------------------
g-----------9\--2222222222222222-----------9\----------------
d--222------9\--2222222222222222--222------9\----------------
a--222--x8--7\--0000000000000000--222--x4--7\----------------
e--000----------------------------000------------------------
   ...                            ...

pre-chorus

chorus
e------------------------------------------------------------------------------
b------------------------------------------------------------------------------
g-----2--4--6--2--2--6--4-----2--4--6--2--2--6--4--2222222222222222------------
d--2--2--4--6--2--2--6--4--2--2--4--6--2--2--6--4--2222222222222222------------
a--2--0--2--4--0--0--4--2--2--0--2--4--0--0--4--2--0000000000000000------------
e--0-----------------------0---------------------------------------------------

interlude

bridge: (guitar 1)
e--------------------------------------------   
b--------------------------------------------
g---4---4---4---4---4---4---4---4------------
d--2-2-2-2-2-2-2-2-2-2-2-2-2-2-2-2-----------
a-0---0---0---0---4---4---4---4--------------
e--------------------------------------------

bridge: (guitar 2)
e--0---0---0---0-----0---------------------------
b---4---4---4---4----0---------------------------
g----4---4---4---4---4-(with-some-weird-effect)--
d--------------------2---------------------------
a--------------------0---------------------------
e--------------------x---------------------------

chorus
e--------------------------------------------------------------------
b--------------------------------------------------------------------
g----2-4-6-2-2-6-4---2-4-6-2-2-6-4-2-4-6-4-2222222222222222----------
d--2-2-4-6-2-2-6-4-2-2-4-6-2-2-6-4-2-4-6-4-2222222222222222----------
a--2-0-2-4-0-0-4-2-2-0-2-4-0-0-4-2-0-2-4-2-0000000000000000----------
e--0---------------0-------------------------------------------------

outro: (electric)
e-0-------0--------0--------0----
b-0-------0--------0--------0----
g-1-------2--------4--------4----
d-2-------2--------4--------2----
a-2-------0--------2--------4----
e-0-------x--------x--------x----


e-0-------0-------0-------0-------0-------
b-0-------0-------0-------0-------0-------
g-2-------2-------4-------4-------2-------
d-2-------2-------2-------4-------2-------
a-0-------0-------4-------2-------0-------
e-x-------x-------x-------x-------x-------
Comments