Starting Line - The Best Of Me Chords & Tabs

 

The Best Of Me Chords & Tabs

Starting Line Chords & Tabs

Version: 3 Type: Bass Tab 0 ratings
1 star 2 stars 3 stars 4 stars 5 stars
comments

The Best Of Me Bass Tab

   
Band:The Starting Line
Song:The Best of Me
tuning:Standard
tabbed by:tslrocks127

Intro (comes in after acoustic guitar)

G|----------------------------------------------------------|
D|----------------------------------------------------------|
A|----------------222--4-444444--------------444--2-222222--|
E|--000--5-555555---------------555-5-555555----------------|

G|----------------------------------------------------------|
D|----------------------------------------------------------|
A|----------------222--4-444444--------------444--2-222222--|
E|--000--5-555555---------------555-5-555555----------------|

G|---------------------------|
D|---------------------------|
A|-0000000000000000000000000-|
E|---------------------------|

verse 1

G|-----------------------------------------------|
D|-----------------------------------------------|
A|-7--777-777-777-777-777-777-777-777------------|
E|-----------------------------------------------|

G|-----------------------|
D|-----------------------|
A|-----------------------|
E|55-555-5-555-55-55-555-|

G|-----------------------------------------------------------|
D|-----------------------------------------------------------|
A|-----------------------------------------------------------|
E|777--777--777--777--777--777--777--777--777--777--777--777-|

G|-----------------------|
D|-----------------------|
A|-----------------------|
E|55-555-5-555-55-55-555-|

G|-----------------------|
D|-----------------------|
A|-777--777--777--777----|
E|-----------------------|

pre-chorus

G|-------------------------------------------------------------------|
D|-------------------------------------------------------------------|
A|-------------------------------------------------------------------|
E|--2222222222222222--5555555555555555--2222222222222222--555555555--|


chorus

G|----------------------------------------------------------|
D|----------------------------------------------------------|
A|----------------222--4-444444--------------444--2-222222--|
E|--000--5-555555---------------555-5-555555----------------|

G|----------------------------------------------------------|
D|----------------------------------------------------------|
A|----------------222--4-444444--------------444--2-222222--|
E|--000--5-555555---------------555-5-555555----------------|

G|---------------------------|
D|---------------------------|
A|-0000000000000000000000000-|
E|---------------------------|

verse 2
[ Tab from: http://www.guitartabs.cc/tabs/s/starting_line/the_best_of_me_btab_ver_3.html ]
G|-----------------------------------------------|
D|-----------------------------------------------|
A|-7--777-777-777-777-777-777-777-777------------|
E|-----------------------------------------------|

G|--------------------------|
D|--------------------------|
A|--------------------------|
E|-55-555-5-555-55-55-555---|

G|---------------------|
D|---------------------|
A|-777--777--777--777--|
E|---------------------|

pre-chorus

G|-------------------------------------------------------------------|
D|-------------------------------------------------------------------|
A|-------------------------------------------------------------------|
E|--2222222222222222--5555555555555555--2222222222222222--555555555--|

chorus

G|----------------------------------------------------------|
D|----------------------------------------------------------|
A|----------------222--4-444444--------------444--2-222222--|
E|--000--5-555555---------------555-5-555555----------------|

G|----------------------------------------------------------|
D|----------------------------------------------------------|
A|----------------222--4-444444--------------444--2-222222--|
E|--000--5-555555---------------555-5-555555----------------|

G|---------------------------|
D|---------------------------|
A|-0000000000000000000000000-|
E|---------------------------|

Bridge

G|----------------------------------------------------------|
D|----------------------------------------------------------|
A|----------------222--4-444444--------------444--2-222222--|
E|--000--5-555555---------------555-5-555555----------------|

G|----------------------------------------------------------|
D|----------------------------------------------------------|
A|----------------222--4-444444--------------444--2-222222--|
E|--000--5-555555---------------555-5-555555----------------|

interlude (first part is just guitar

G|----------------------------------------------|
D|----------------------------------------------|
A|----------------------------------------------|
E|--0~---5~---0~---55555555555555555555555555555|

chorus


G|----------------------------------------------------------}
D|----------------------------------------------------------}
A|----------------222--4-444444--------------444--2-222222--}
E|--000--5-555555---------------555-5-555555----------------}

G|----------------------------------------|
D|----------------------------------------|
A|--444--2-222222--444--2-222222----------|  
E|----------------------------------------|

end on 

G|-----|
D|-----|
A|-----|
E|--0--|


thats it. its a very easy and fun song to play. rate after you learn it.
Comments