Starting Line - Surprise Surprise Chords & Tabs

 

Surprise Surprise Chords & Tabs

Starting Line Chords & Tabs

Version: 1 Type: Tab

Surprise Surprise Tab

Band:  The Starting Line
Song:  Surprise, Surprise
Tuning:  Half step down

[CODE]Intro:

Guitar 1 (let ring)

---------------------------------------------------------------------------------------------|
---------------------------------------------------------------------------------------------|
-----------------------------------9---------------------------------------------------------|
--7-----------9----------11--------9----------7---------9---------4--------11-----7-------9--|
--7-----------9----------11--------7----------7---------9---------4--------11-----7-------9--|
--5-----------7----------9--------------------5---------7---------2--------9------5-------7--|

Guitar 2

-----0-----------0----------0----------0----------0----------0----------0----------0---------|
--------7-----------7----------7----------7----------7----------7----------7----------7------|
--9-9---------9----------9----------9----------9----------9----------9----------9------------|
---------------------------------------------------------------------------------------------|
---------------------------------------------------------------------------------------------|
---------------------------------------------------------------------------------------------|

Intro cont...

-----------------------------------------------------------------------------------------------------|
-----------------------------------------------------------------------------------------------------|
--9--9--9--9--9--9--9--9-----------------------------------------------------------------------------|
--9--9--9--9--9--9--9--9--7--7--7--7--7--7--7--7--4--4--4--4--4--4--4--4--9--9--9--9--11--11--11--11-|
--7--7--7--7--7--7--7--7--7--7--7--7--7--7--7--7--4--4--4--4--4--4--4--4--9--9--9--9--11--11--11--11-|
--------------------------5--5--5--5--5--5--5--5--2--2--2--2--2--2--2--2--7--7--7--7--9---9---9---9--|

sorry but i havent figured out the lead melody during this part yet...

for the verse you just hit

-----
-----
--9--
--9--
--7--
--0--

play along with song to get the rhythm.

--------------|
--------------|
--9--8--6--4--|
--9--9--6--4--|
--7--6--4--2--|
--------------|

somewhere in here i think these chords are played but not totally sure...

---------------------|
---------------------|
---------------------|
--4-----4-----2------|
--4-----4-----2------|
--2-----6-----0------|

and then this part builds up to the chorus.
[ Tab from: http://www.guitartabs.cc/tabs/s/starting_line/surprise_surprise_tab.html ]
--------------------------------------|
--------------------------------------|
--------------------------------------|
--7--7--7--7--7--7--7--7--9--9--9--9--|
--7--7--7--7--7--7--7--7--9--9--9--9--|
--5--5--5--5--5--5--5--5--7--7--7--7--|

Chorus

------------------------------------------------------------------------------------------|
------------------------------------------------------------------------------------------|
------------------------------------------------------------------------------------------|
--11-11-11-11-11-11-11-11-9--9--9--9--9--9--9--9----4--4--4--2--4----2--4--2--4--6--4--2--|
--11-11-11-11-11-11-11-11-9--9--9--9--9--9--9--9----4--4--4--2--4----2--4--2--4--6--4--2--|
--9--9--9--9--9--9--9--9--7--7--7--7--7--7--7--7----2--2--2--0--2----0--2--0--2--4--2--0--|
                                                                              *  *  *
--------------------------------------------------------------------------------------------------|
--------------------------------------------------------------------------------------------------|
--------------------------------------------------------------------------------------------------|
--7--7--7--7--7--7--7--7--9--9--9--9--9--9--9--9--4--4--4--4--4--4--4--4--11-11-11-11-11-11-11-11-|
--7--7--7--7--7--7--7--7--9--9--9--9--9--9--9--9--4--4--4--4--4--4--4--4--11-11-11-11-11-11-11-11-|
--5--5--5--5--5--5--5--5--7--7--7--7--7--7--7--7--2--2--2--2--2--2--2--2--9--9--9--9--9--9--9--9--|

---------------------------|
---------------------------|
---------------------------|
7--7--7--7--7--7--7--7--9--|
7--7--7--7--7--7--7--7--9--|
5--5--5--5--5--5--5--5--7--|

this is the part building up to the last chorus (all palm muted)

-----------------------------------------|
-----------------------------------------|
--9--------------------------------------|
--9--X8--11------9------7-------------9--|
--7------11--X8--9--X8--7--X-a-bunch--9--|
---------9-------7------5-------------7--|

Outro

--------------------------------------------------------------------------|
--------------------------------------------------------------------------|
--------------------------------------------------------------------------|
--11-11-11-11-11-11-11-11-9--9--9--9--9--9--9--9--7--7--7--7--7--7--7--7--|
--11-11-11-11-11-11-11-11-9--9--9--9--9--9--9--9--7--7--7--7--7--7--7--7--|
--9--9--9--9--9--9--9--9--7--7--7--7--7--7--7--7--5--5--5--5--5--5--5--5--|

End with

--------------------------|
--------------------------|
------------------9-------|
--7----9----11----9----7--|
--7----9----11----7----7--|
--5----7----9----------5--|[/CODE]


Thats it!  i know im missing one or two parts but this should give you a good base to 
this song.
You definately need to play along with the song to get the timing for some of the parts 
overall its a really easy song.
Thanks for your time and please rate this!!!