Starting Line - Suprise Suprise Chords & Tabs

 

Suprise Suprise Chords & Tabs

Starting Line Chords & Tabs

Version: 1 Type: Tab 0 ratings
1 star 2 stars 3 stars 4 stars 5 stars
comments

Suprise Suprise Tab

   
First tab off the new album!

Band: Starting Line
Album: Based On A True Story
Song: Suprise Suprise


Intro
e------------------------------------------------------|
b------------------------------------------------------|
g------------------------------------------------------|
d------------------8~----------------------------------|
a-6-----8-----10~--6---6~-8-----3~-10--6~-8~-----------|
e-4~----6~----8--------4--6-----1--8---4--6------------|


Intro 2
e------------------------------------------------------|
b------------------------------------------------------|
g------------------------------------------------------|
d-888888888888-----------------------------5--8--8-----|
a-66666666666666666666666666-3333333333--8-3--5--6~----|
e-------------44444444444444-1111111111--6-------------|


Verse(wait for bass/drum vocal to finsh the first part of verse 1)
[ Tab from: http://www.guitartabs.cc/tabs/s/starting_line/suprise_suprise_tab.html ]
e-----------------------------------------------------|
b-----------------------------------------------------|
g-----------------------------------------------------|
d-888888888-888888888-55555555-33333333---------------|
a-666666666-555555555-33333333-11111111-333333-888888-|
e---------------------------------------111111-666666-|
PM.........PM............PM.......PM......PM.........

Chorus

e------------------------------------------------|
b------------------------------------------------|
g------------------------------------------------|
d------------------------------------------------|
a-10101010-8888888---3333--3333------------------|
e-88888888-66666666--0101--0101------------------|


e--------------------------------------------------|
b--------------------------------------------------|
g--------------------------------------------------|
d-66666666-888888-33333333-10101010----------------|
a-44444444-666666-11111111-88888888----------------|
e--------------------------------------------------|

easy stuff . bridge is the same the verse/ but slower/ rock out
Comments