Starting Line - Selective Chords & Tabs

 

Selective Chords & Tabs

Starting Line Chords & Tabs

Version: 1 Type: Bass Tab 0 ratings
1 star 2 stars 3 stars 4 stars 5 stars
comments

Selective Bass Tab

song: Selective
band: The Starting Line
Albumn: make yourself at home ep

Intro/verse

0:00-0:23

" You've made quite a life for yourself....."

G----------------------------------------------------------------------------|
D----------------------------------------------------------------------------|
A-55555555-5-5-5-5-5-5-5-55555555>5-5-5-5-5-5-5-5555555>---------------------|
E----------------------------------------------------------------------------|


0:25-0:45

" Sharpen your over acting skills........."

G-----------------------------------------------------------------------------|
D-----------------------------------------------------------------------------|
A-5555555-3333333-55555555555555-33333333-555555555---------------------------|
E-----------------------------------------------------------------------------|  (2x)


0:45-1:13

"Try and Steady yourself, but with one hand down..........."

G----------------------------------------------------------------------------|
D----------------------------------------------------------------------------|
A-55555555-5-5-5-5-5-5-5-55555555>5-5-5-5-5-5-5-5555555>---------------------|
E----------------------------------------------------------------------------|

1:14 - 1:32

" Sharpen your over acting skills........."

G----------------------------------------------------------------------------|
D----------------------------------------------------------------------------|
A-5555555-3333333-55555555555555-33333333-555555555--------------------------|
E----------------------------------------------------------------------------|    (2x)

[ Tab from: http://www.guitartabs.cc/tabs/s/starting_line/selective_btab.html ]
1:34 - 1:56

        ( no bass till ken starts singing )

1:57 - 2:17

G----------------------------------------------------------------------------|
D----------------------------------------------------------------------------|
A-2~-----4~------6~------2~------4~------6~------2~------4~------------------|
E----------------------------------------------------------------------------|


2:18 - 2:39

G----------------------------------------------------------------------------|
D----------------------------------------------------------------------------|
A-5555-3333-5555-3333-5555-3333-5555-3333-55555555>-3333333333>--------------|
E----------------------------------------------------------------------------|


2:40 - 3:09


" Sharpen your over acting skills........."

G-----------------------------------------------------------------------------|
D-----------------------------------------------------------------------------|
A-5555555-3333333-55555555555555-33333333-555555555---------------------------|
E-----------------------------------------------------------------------------|(3x)

3:12- 3:21

 "Mark your words, with confidence, selective attention"

G--------------------------------------------------------------------------|
D--------------------------------------------------------------------------|
A-2~---------------4~------------------2---4---6----2~----2~---------------|
E--------------------------------------------------------------------------|

End


that's it. This song originally doesn't have a bass part in it.....(I think)
so I made this up. This is my first tab so rate after u learn it
Comments