Starting Line - Saddest Girl Story Chords & Tabs

 

Saddest Girl Story Chords & Tabs

Starting Line Chords & Tabs

Version: 2 Type: Tab 0 ratings
1 star 2 stars 3 stars 4 stars 5 stars
comments

Saddest Girl Story Tab

   
IMPORTANT
ok. On Their debut, the starting line wrote saddest girl story and put it on it.
on say it like you mean it, their second cd, they play it pretty much the same
way, but ONE HALF STEP HIGHER. im tabbing the latest version.

E---     E---          
B---     B---
G-7-     G-8-
D-7-     D-8-
A-5-     A-6-
E---     E---

Guitar 1
Intro 1
e------------------
B------------------
G-88-88-88-88-8888-
D-88-88-88-88-8888-
A-66-66-66-66-6666-
E------------------
  .. .. .. .. ....

Fill
e--------
B--------
G-13-12-8
D-13-12-8           Pause for Guitar 2
A-11-10-6
E--------

Intro 3
e----------------------------------------------------------------------
B----------------------------------------------------------------------
G----------------------------------------------------------------------
D-88-888-888-8---------------------------------------------------------
A-66-666-666-68s66-666-666-666-6-1010-101010-101010-10-5s66-666-666-666
E-------------6s44-444-444-444-4-8-8--8-8-8---8-8-8-8--3s44-444-444-444

Verse 1
e----------------------------------------
B----------------------------------------
G----------------------------------------
D-8-888-88-88-8888-----8-888-88-88-8888--
A-6-666-66-66-6666-8---6-666-66-66-6666-6
E------------------6--------------------4

Pre-Chorus
e------------------------------------------------------
B------------------------------------------------------
G------------------------------------------------------
D------------------------8888--------------------------
A-3-335-556-668-10101010-6666-6666-8888-6---------66666
E-1-113-334-446-8-8-8-8-------4444-6666-4---------44444
    ..  ..  ..

Chorus
e--------------------------------------------
B--------------------------------------------
G--------------------------------------------
D-88888888-----------------------------------
A-66666666-66666666-8888-10101010-66-66-66-66
E----------44444444-6666-8-8-8-8--44-44-44-44
                                  ..    ..

No Guitar 1 on bridge 1

Bridge 2 (play intro first, but don't p.m) every fourth note)
e-------------------------------------------------------------------------
B-------------------------------------------------------------------------
G-121212121212121212121212-131313131313131313131313-1515151515151515151515
D-121212121212121212121212-131313131313131313131313-1515151515151515151515
A-101010101010101010101010-111111111111111111111111-1313131313131313131313
E-------------------------------------------------------------------------

e--------
B--------
G-13-12-8
D-13-12-8
A-11-10-6
E--------

Outro
e--------------------
B--------------------
G-13-12-8-888-8------
D-13-12-8-888-8------
A-11-10-6-666-6------
E--------------------

Order
Intro---------------x8
Fill________________x1
Intro 2-------------x2
Verse_______________x2
Pre Chorus----------x3
Chorus______________x2
Bridge 1------------
Verse_______________x2
Chorus--------------x2
Bridge 2____________x1
Chorus--------------x2
Outro_______________x1
______________________________________________________________________
Guitar 2
[ Tab from: http://www.guitartabs.cc/tabs/s/starting_line/saddest_girl_story_tab_ver_2.html ]
Intro 1
e----------------------
B----------------------
G-8--------------------
D-8--------------------
A-6--------------------
E----------------------

e----------------------------------------------
B----------------------------------------------
G-8-8-8-8---8---8888-8---8----8888-8---8---8888
D---------8---8--------8---8---------8---8-----
A----------------------------------------------
E----------------------------------------------

Fill
e-------------------------------
B-11-----11-11-11-----11-11-11--
G----8-8----------8-8----------8
D-------------------------------
A-------------------------------
E-------------------------------

Intro 2
e----------------------
B-11-----11-11-11---8-9
G---8-8----------8-8---
D----------------------
A----------------------
E----------------------

Intro 3
e-------------------                                       e-----------------
B-111111----1111-8-9                                       B-1111111111111111
G-8-8-8--88-8-8--8-8          -play this 3x then this:     G-8-8-8-8-8-8-8-8-
D-------------------                                       D-----------------
A-------------------                                       A-----------------
E-------------------                                       E-----------------

Verse
e------------------------------------------------
B------------------------------------------------
G-8-888-88-88-8888-----8-888-88-88-8888----------
D-8-888-88-88-8888-8---8-888-88-88-8888-6--------
A-6-666-66-66-6666-8---6-666-66-66-6666-6-11-10-8
E------------------6--------------------4--------

Pre-Chorus
e-----------------------------------------------------
B-------------11111111-8-9999-11-9-8-6-11111111-9-8888
G-------------8-8-8-8--8-8888----------8-8-8-8--8-8888
D-3-335-556-66----------------------------------------
A-3-335-556-66----------------------------------------
E-1-113-334-44----------------------------------------
    ..  ..  ..
Chorus
e----------------------------------------------------------------------------
B-11---11---11---8h9p8-11---11---11---8hp9-11---11---11---8h9p8--------------
G----8----8----8----------8----8----8---------8----8----8--------------------
D----------------------------------------------------------------------------
A------------------------------------------------------------------6------6--
E---------------------------------------------------------------44---4-44---4
     
Bridge 1
Play this 1x                 Play this 3x then           Play this 
e------------------------       e-----------------         e---------------
B------------------------       B-11-11-11-11-8-9-         B-11111111-1111-
G-8------8s3--7-8-10-8p78       G---8--8--8-------         G-8-8-8-8--8-8--
D-8----------------------       D-----------------         D---------------
A-6----------------------       A-----------------         A---------------
E------------------------       E-----------------         E---------------
                                    .  .  .
Bridge 2
-SAME AS INTRO 1, just a different rhythm

Outro:
e--------------------
B--------------------
G-13-12-8-888-8------
D-13-12-8-888-8------
A-11-10-6-666-6------
E--------------------

Order:
Intro 1______________x1
Fill-----------------x1
Intro 2______________x4
Intro 3--------------x1
Verse________________x2 
Pre Chorus-----------x1
Chorus_______________x2
Bridge 1-------------x1
Verse________________x2
Chorus---------------x2
Bridge 2_____________x2
Fill-----------------x1
Chorus_______________x2
Outro________________x1

E-mail me at: Because419@aol.com
Comments