Starting Line - Ready Chords & Tabs

 

Ready Chords & Tabs

Starting Line Chords & Tabs

Version: 1 Type: Tab 0 ratings
1 star 2 stars 3 stars 4 stars 5 stars
comments

Ready Tab

starting line-ready
there is no tabs for this song anywhere but can only figure out the intro sorry
tab by dennis
if questions email me at downnotunder27@hotmail.com

[ Tab from: http://www.guitartabs.cc/tabs/s/starting_line/ready_tab.html ]
correct way
e-0-h2--0-h2---------------|
B-----3-----3-3-2----2--2--|
G------------2-------------|
D-0-0-0-0-0-0-0--0----0--0-|
A------------------0---0---|
E--------------------------|

or can be played like this
easy way
e------------------|
B--7---7-----------|
G-9-7-9-7-7-6--6-6-|
D--------7---0--0-0|
A-------------0--0-|
E------------------|
Comments