Starting Line - Playing Favorites Chords & Tabs

 

Playing Favorites Chords & Tabs

Starting Line Chords & Tabs

Version: 3 Type: Tab 0 ratings
1 star 2 stars 3 stars 4 stars 5 stars
comments

Playing Favorites Tab

Here are the chords I think are right. This is my first time doing this.


Intro/verse
-0----0----0----3--2-|
-2----0----3----3--3-|
-2----2----2----2--2-|
-2----2----0----0--0-|
-0----0----0----0--0-|
-0----0----0----0--0-|

[ Tab from: http://www.guitartabs.cc/tabs/s/starting_line/playing_favorites_tab_ver_3.html ]
Pre chorus
-0---        -2---|
-2---        -3---|
-2---   4x   -2---|   4x  Struming pattern is down, up, down, down
-2---        -0---|
-0---        -0---|
-0---        -0---|


Chorus
-0----0----2----2-|
-2----0----2----3-|
-2----2----2----2-|
-2----2----2----0-|
-0----0----4----0-|
-0----0----2----0-|


Thats all now

If you have any questions or corrections you know u can reach me at 
  THANY YOU
Comments