Starting Line - Playing Favorites Acoustic Chords & Tabs

 

Playing Favorites Acoustic Chords & Tabs

Starting Line Chords & Tabs

Version: 1 Type: Tab 0 ratings
1 star 2 stars 3 stars 4 stars 5 stars
comments

Playing Favorites Acoustic Tab

#----------------------------------PLEASE NOTE---------------------------------#
#This file is the author's own work and represents their interpretation of the-#
#song. You may only use this file for private study, scholarship, or research.-#
#------------------------------------------------------------------------------#
#                                                                              #
#               Starting Line  -  Plaing Favorites (Acoustic version)          #
#------------------------------------------------------------------------------#

Okay im a big fan of the starting line and im glad i finally found this tab myself.
It may not be completely correct but its all i can find. If anyone knows a better
onejust post it or tell me. Oh and just listen to the song to get the exact
number of strums for the chords. Later.


intro and fill
e|-------------------------------------------------------------------|
B|---------5------------5-------5------------------------------------|
G|-----4h6---4/6------4---4-4h6---4/6-------------------------4------|
D|-7-------------6/7------------------6/7---4--6--2----4h6h7----6/7--|
A|-7----------------------------------------0--0--0--0---------------|
E|-5-------------------------------------------------5---------------|

verse and chorus
e|-------------------------------------------|
B|-------------------------------------------|       
G|-------9-----7-----9-----------------------|
D|-7-----9-----7-----9-----------------------|
A|-7-----7-----5-----7-----------------------|
E|-5-----------------------------------------|

pre chorus
e|------------------------------|
B|------------------------------|
G|-----9---7--------------------|
D|-7---x---x--------------------|
A|-x---7---5--------------------|
E|-5----------------------------|
[ Tab from: http://www.guitartabs.cc/tabs/s/starting_line/playing_favorites_acoustic_tab.html ]
bridge
e|-------------------------------------|
B|-------------------------------------|
G|-14---13---11--9---9/11--7---5---7---| (3x)
D|--x---x----x---x---x-x---x---x---x---|
A|-12---11---9---7---7/9---9---7---9---|
E|-------------------------------------|

e|---------------------------|
B|---------------------------|
G|-14--13--14--11---13-------|
D|--x---x---x---x----x-------|
A|-12--11--12---9---11-------|
E|---------------------------|

Outro (till california comes, till california comes)
e|------------------|
B|------------------|
G|--11--13--14------|
D|---x---x---x------|
A|---9--11--12------|
E|------------------|


Lyrics : 

"Playing Favorites"

i guess the most that i can do
is make a call and tell you the truth
sing the words in melody
and hope that you'll believe me
here's another song for you
so this one this one makes two
still don't know where to begin
i'll just leave it at this

i'm sure you always feel my eyes on you
but i hope that you will never feel unwanted
wait for me to move out west
it's ok if you don't
i hope you know
you're my favorite thing
about the west coast
i wish i stayed
i hope you wait
so here i am
counting down the days
till california comes

this is the least that i can do
you know i'm bad at calling you
the best way i can accept
the lonely words i miss you
i'll say it but i'm sure you knew
you're what i look most forward to
coming back to where i've been
i'll just leave it at this

i'm sure you always feel my eyes on you
but i hope that you will never feel unwanted
if you feel unwanted
wait for me to move out west
it's ok if you don't
i hope you know
you're my favorite thing
about the west coast
i wish i stayed
i hope you wait
so here i am
counting down the days
till california comes

================================================================================

Comments