Starting Line - Piano Song Chords & Tabs

 

Piano Song Chords & Tabs

Starting Line Chords & Tabs

Version: 1 Type: Tab 0 ratings
1 star 2 stars 3 stars 4 stars 5 stars
comments

Piano Song Tab

   
By: Jeff M & Stefan W 

> = SLIDE 
P = PULL OFF 
H = HAMMER 


e|--3------------------------------------------------------------------------| 
B|--3------------------------------------------------------------------------| 
G|--0----<==== CHORD USED DURING WHOLE SONG----------------------------------| 
D|--0------------------------------------------------------------------------| 
A|---------------------------------------------------------------------------| 
E|---------------------------------------------------------------------------| 

1st solo 
e|--------------------------------------------------------3------------------| 
B|7>8-777-8-10-12H-10-7-8-7>8-----------------------------3------------------| 
G|----------------------------7>9-7-5-4-4>5>4-2-0-0-------0------------------| 
D|--------------------------------------------------0-2>5-0------------------| 
A|---------------------------------------------------------------------------| 
E|---------------------------------------------------------------------------| 
[ Tab from: http://www.guitartabs.cc/tabs/s/starting_line/piano_song_tab.html ]
2nd Solo 
e|8>7-----8-7----------------------------------------------------------------| 
B|---8>10----8---------------------------------------------------------------| 
G|------------7-4-4H5-5H4-2-0H2-2>4-4-5P-7P-5>4------4-7-5-4-7-5-------------| 
D|---------------------------------------------5-5--5------------------------| 
A|---------------------------------------------------------------------------| 
E|---------------------------------------------------------------------------| 

CONT. 
e|----------------------------------------------------------------3----------| 
B|----------------------------------------------------------------3----------| 
G|--4-7-5-4--4-7-5-4----------------------------------------------0----------| 
D|-5--------5--------5-5------------------------------------------0----------| 
A|---------------------------------------------------------------------------| 
E|-----------------------7>5-5>3-3>5-5>7-7-8>10-7-8-7-8-7-8>-3-3-------------| 

Ending 
e|--3-3-3-3-2-2(listen for times played)--3(listen)-2(listen)-2---3----------| 
B|----------------------------------------3---------3---------3---3----------| 
G|----------------------------------------0---------0-------------0----------| 
D|----------------------------------------------------------------0----------| 
A|---------------------------------------------------------------------------| 
E|---------------------------------------------------------------------------| 

There ya go. Hope you enjoy. BE GREATFUL!
Comments