Starting Line - Photography Chords & Tabs

 

Photography Chords & Tabs

Starting Line Chords & Tabs

Version: 2 Type: Tab 0 ratings
1 star 2 stars 3 stars 4 stars 5 stars
comments

Photography Tab

-----------------------------------------------------------------
       The Starting Line ---- Photography
-----------------------------------------------------------------
tabbed by: TBS Drummer160

--Drop-D tuning--

Intro/ Verse
e-------------------------------------------------------------------------|
b-------------------------------------------------------------------------|
g----0-2------0-2-----------0-2----0-2--------0-2----0-2------------------|
d---------------------4------------------4-----------------4--------------|
a-------------------------------------------2-----2-----2-----------------|
d--0------0--------0-----0------0------0----------------------------------|

e-------------------------------------------------------------------------|
b-------------------------------------------------------------------------|
g---0-2-----0-2-----------------------------------------------------------|
d------------------4-------5----5---4-----5--4----------------------------|
a-2------2------2--------5----5---------5------5--------------------------|
d----------------------5----5---5-----5----------5------------------------|

Pre-Chorus                  Chorus
e-------------------------------------------------------------------------|
b-------------------------------------------------------------------------|
g-----------------------------------4444--4444----------------------------|
d----0-4-----0-4--------5555--5555--4444--4444----------------------------|
a-----------------------5555--5555--2222--2222----------------------------|
d-2-------4-------------5555--5555----------------------------------------|

Post-Chorus (where it starts to get loud)
e-------------------------------------------------------------------------|
b-----------------------Do This Twice-------------------------------------|
g------------------------Then Pause---------------------------------------|
d-222--444--555--555------------------------------------------------------|
a-222--444--555--555------------------------------------------------------|
d-222--444--555--555------------------------------------------------------|
[ Tab from: http://www.guitartabs.cc/tabs/s/starting_line/photography_tab_ver_2.html ]
Bridge
e-------------------------------------------------------------------------|
b------------------------------------------------Do This Twice------------|
g-11-11-11-11-99--11-11-11-9--11-12-11-9----------------------------------|
d-11-11-11-11-99--11-11-11-9--11-12-11-9----------------------------------|
a-9--9--9--9--77--9--9--9--7--9--10--9-7----------------------------------|
d-------------------------------------------------------------------------|

e-------------------------------------------------------------------------|
b-------------------------------------------------------------------------|
g-------------------------------------------------------------------------|
d--14-14-14-14-14-14-14-14-14-12-11-12-14-14-14---------------------------|
a--14-14-14-14-14-14-14-14-14-12-11-12-14-14-14---------------------------|
d--12-12-12-12-12-12-12-12-12-10-9--10-12-12-12---------------------------|

The Breaks In The Bridge
e-------------------------------------------------------------------------|
b-------------------------------------Do This Twice-----------------------|
g--11-7--------11-9-11-12--11-9999----------------------------------------|
d--11-7--------11-9-11-12--11-9999----------------------------------------|
a--9--5--------9--7-9--10--9--7777----------------------------------------|
d-------------------------------------------------------------------------|

e-------------------------------------------------------------------------|
b--------------------------------------------------Do This Twice----------|
g-------------------------------------------------------------------------|
d--14-14-14-14-14-14-14-14-14-12-11-12-14-14-14---------------------------|
a--14-14-14-14-14-14-14-14-14-12-11-12-14-14-14---------------------------|
d--12-12-12-12-12-12-12-12-12-10-9--10-12-12-12---------------------------|

e-------------------------------------------------------------------------|
b-------------------------------------Do This Twice-----------------------|
g--11-7--------11-9-11-12--11-9999-----Then Do...-------------------------|
d--11-7--------11-9-11-12--11-9999------------------222-444---------------|
a--9--5--------9--7-9--10--9--7777------------------222-444---------------|
d---------------------------------------------------222-444---------------|

Chorus
e-------------------------------------------------------------------------|
b-------------------------------------------------------------------------|
g-------------4444--4444--------------------------------------------------|
d-5555--5555--4444--4444--------------------------------------------------|
a-5555--5555--2222--2222--------------------------------------------------|
d-5555--5555--------------------------------------------------------------|
Comments