Starting Line - Making Love To The Camera Chords & Tabs

 

Making Love To The Camera Chords & Tabs

Starting Line Chords & Tabs

Version: 1 Type: Tab 0 ratings
1 star 2 stars 3 stars 4 stars 5 stars
comments

Making Love To The Camera Tab

---------------------------------------------------------------------------
Making Love to the Camera - The Starting Line
----------------------------------------------------------------------------
Tabbed by:Jtown45
Email:joester2009@yahoo.com
[ Tab from: http://www.guitartabs.cc/tabs/s/starting_line/making_love_to_the_camera_tab.html ]
Tuning:standard
intro:
e|-------------------------------------------------------------------|
B|-------------------------------------------------------------------|
G|-999999--8----------666666--4--------------------------------------|
D|-999999--8-(x2)-----666666--4--(x2)--------------------------------|
A|-777777--6----------444444--2--------------------------------------|
E|-------------------------------------------------------------------|

e|--------------------------------------------------------------------|
B|--------------------------------------------------------------------|
G|-999999--8----------666666--4--6~-----------------------------------|
D|-999999--8--(x2)----666666--4--6~-----------------------------------|
A|-777777--6----------444444--2--4~-----------------------------------|
E|--------------------------------------------------------------------|

simple and easy.  Email me for corrections
Comments