Starting Line - Make Yourself At Home Chords & Tabs

 

Make Yourself At Home Chords & Tabs

Starting Line Chords & Tabs

Version: 2 Type: Tab 0 ratings
1 star 2 stars 3 stars 4 stars 5 stars
comments

Make Yourself At Home Tab

Starting Line - Make Yourself at Home
By:Andrew (guitarguyx182@aol.com)

everyone always gets this riff wrong ,so i'll try. 
[ Tab from: http://www.guitartabs.cc/tabs/s/starting_line/make_yourself_at_home_tab_ver_2.html ]
Heres the Main Riff
e|---------------------------------------------------------------------------|
B|--------9------------9------------9----------------------------------------|
G|-----9-------------9-----------9------------7-7-7-7------------------------|
D|---7------------7------------7--------------7-7-7-7------------------------|
A|-0-----------9------------------------------5-5-5-5------------------------|
E|--------------------------7------------------------------------------------|

Chorus
e|---------------------------------------------------------------------------|
B|---------------------------------------------------------------------------|
G|--7-7-7-----------9-9-9----------------------------------------------------|
D|--7-7-7----7-7-7--9-9-9----------------------------------------------------|
A|--5-5-5----7-7-7--7-7-7----------------------------------------------------|
E|-----------5-5-5-----------------------------------------------------------|
Comments